Chickenfoot - Soap On A Rope Intro Chords & Tabs

 

Soap On A Rope Intro Chords & Tabs

Chickenfoot Chords & Tabs

Version: 2 Type: Tab

Soap On A Rope Intro Tab

   
Standard Tuning, Heavy Distortion
You can bend the C (3rd fret A string) a quarter step to get the satch feel
                                        D/A   A5    E5
e|--------------------------------------------------------|
B|---------------------------------------3----------------|
G|---------------------------------------2-----2----------|
D|---------------------------------------0-----2----2-2---|
A|---0h3r0h7r0----0h3p0h5r0------0h3r0---0----0----2-2---|
E|------------------------------------------------0-0-0---|


                                                        A5
e|-----------------------------------------------------------------||
B|-----------------------------------------------------------------||
G|-------------------------------------------9-------7----2-2-----o||
D|---------------------------------------/7------/5-------2-2------||
A|---0h3r0h7r0----0h3p0h5r0------0h3r0-----------------0-0-0-----o||
E|-----------------------------------------------------------------||
[ Tab from: https://www.guitartabs.cc/tabs/c/chickenfoot/soap_on_a_rope_intro_tab_ver_2.html ]