Chevelle - Jars Chords & Tabs

 

Jars Chords & Tabs

Chevelle Chords & Tabs

Version: 1 Type: Bass Tab

Jars Bass Tab

   
Chevelle
"Jars"
Sci-Fi Crimes

Tuning: (Low to High) B F# B e

I feel like this is correct. It sounds correct to me and I watched Dean play it live. If 
have any questions or corrections just let me know.


Intro  Guitar only until 9 sec


Intro  (x2)
e |---------------------------------------------|
B |---------------------------------------------|
F#|---------------------------------------------|
B |--12-12-0-12-15-15-0-15-10-10-0-10-8-8-0-8---|
.

Pre Chorus  (x2)
e |------------------------------------------|
B |------------------------------------------|
F#|------------------------------------------|
B |--12-12-0-12-12-0-0-12-8-8-0-8-8-0-0-8----|

e |------------------------------------------|
B |------------------------------------------|
F#|------------------------------------------|
B |--5-5-0-5-5-0-0-5-7-7-0-7-7-0-0-7---------|


Chorus  (x2)
e |--------------------------------------|
B |--------------------------------------|
F#|--------------------------------------|
B |--12-(x14)-3-(x14)-8-(x14)-5-(x14)----|


Post Chorus  (x1)
e |---------------------------------------------|
B |---------------------------------------------|
F#|---------------------------------------------|
B |--12-12-0-12-15-15-0-15-10-10-0-10-8-8-0-8---|

e |---------------------------------------------|
B |---------------------------------------------|
F#|---------------------------------------------|
B |--3-3-0-3-7-7-0-7-5-5-0-5--8-10--------------|


Verse  (x4)
e |------------------------------------------------|
B |------------------------------------------------|
F#|------------------------------------------------|
B |--12-12-0-12-15-15-0-15-10-10-0-10-8-8-0-8------|
.
[ Tab from: https://www.guitartabs.cc/tabs/c/chevelle/jars_btab.html ]
Pre Chorus  (x2)
e |----------------------------------------------|
B |----------------------------------------------|
F#|----------------------------------------------|
B |--12-12-0-12-12-0-0-12-8-8-0-8-8-0-0-8--------|

e |----------------------------------------------|
B |----------------------------------------------|
F#|----------------------------------------------|
B |--5-5-0-5-5-0-0-5-7-7-0-7-7-0-0-7-------------|


Chorus  (x2)
e |----------------------------------------|
B |----------------------------------------|
F#|----------------------------------------|
B |--12-(x14)-3-(x14)-8-(x14)-5-(x14)------|


Post Chorus   (x2)
e |---------------------------------------------|
B |---------------------------------------------|
F#|---------------------------------------------|
B |--12-12-0-12-15-15-0-15-10-10-0-10-8-8-0-8---|

e |---------------------------------------------|
B |---------------------------------------------|
F#|---------------------------------------------|
B |--3-3-0-3-7-7-0-7-5-5-0-5---8-10-------------|


Interlude   (x4)
e |------------------------------------------------------------------|
B |------------------------------------------------------------------|
F#|------------------------------------------------------------------|
B |--12--12-14-12-14---12- 12-14-12-14---12--12-14-12-14---10-10-10--|


Chorus   (x4)
e |----------------------------------------|
B |----------------------------------------|
F#|----------------------------------------|
B |--12-(x14)-3-(x14)-8-(x14)-5-(x14)------|


Outro  (x7)
e |----------------------|
B |----------------------|
F#|----------------------|
B |--12--12-14-12-14-----|


End With
e |--------------|
B |--------------|
F#|--------------|
B |--12////------|