Chevelle - I Get It Chords & Tabs

 

I Get It Chords & Tabs

Chevelle Chords & Tabs

Version: 1 Type: Bass Tab

I Get It Bass Tab

   
Verse: (0:03)
G |-------------------------------------------------------------------|
D |-------------------------------------------------------------------|
A |---1-1-----1-1-3/4---1-1-----1-1-3/4-------------------------------|
Eb|-2-----2-2---------2-----2-2---------2-5-5-2-2-5-5-5-0-0-0-0-0-0-0-|

G |-----------------------------------------------------------------|
D |-----------------------------------------------------------------|
A |-----1-1-----1-1-3/4---1-1-----1-1-3/4---------------------------|
Eb|-0-2-----2-2---------2-----2-2---------2-5-5-2-2-5-5-5-0-0-0-0-0-|

Chorus: (0:18)
G |-------------------------------------------------------------------|
D |-------------------------------------------------------------------|
A |---1-1-----1-1-3/4---1-1-----1-1-3/4-------------------------------|
Eb|-2-----2-2---------2-----2-2---------2-5-5-2-2-5-5-5-0-0-0-0-0-0-0-|

G |-----------------------------------------------------------------|
D |-----------------------------------------------------------------|
A |-----1-1-----1-1-3/4---1-1-----1-1-3/4---------------------------|
Eb|-0-2-----2-2---------2-----2-2---------2-5-5-2-2-5-5-5-0-0-0-0-0-|

G |-----------|
D |-----------|
A |-------1/7-|
Eb|-0-0-0-----|

Verse: (0:41)
G |-------------------------------------------------------------------|
D |-------------------------------------------------------------------|
A |---1-1-----1-1-3/4---1-1-----1-1-3/4-------------------------------|
Eb|-2-----2-2---------2-----2-2---------2-5-5-2-2-5-5-5-0-0-0-0-0-0-0-|

G |-------------------------------------------------------------------|
D |-------------------------------------------------------------------|
A |-----1-1-----1-1-3/4---1-1-----1-1-3/4-----------------------------|
Eb|-0-2-----2-2---------2-----2-2---------2-5-5-2-2-5-5-5-0-0-0-0-0-0-|

G |-------------------------------------------------------------------|
D |-------------------------------------------------------------------|
A |-------1-1-----1-1-3/4---1-1-----1-1-3/4---------------------------|
Eb|-0-0-2-----2-2---------2-----2-2---------2-5-5-2-2-5-5-5-0-0-0-0-0-|
[ Tab from: https://www.guitartabs.cc/tabs/c/chevelle/i_get_it_btab.html ]
G |-------------------------------------------------------------------|
D |-------------------------------------------------------------------|
A |---------1-1-----1-1-3/4-----1-1-----1-1-3/4-----------------------|
Eb|-0-0-0-2-----2-2---------2-2-----2-2---------2-5-5-2-2-5-5-5-0-0-0-|

G |-----|
D |-----|
A |-----|
Eb|-0-0-|

Chorus: (1:12)

Verse: (1:35)  Played the same as the verse at 0:41

Chorus: (2:06)
G |-------------------------------------------------------------------|
D |-------------------------------------------------------------------|
A |---1-1-----1-1-3/4---1-1-----1-1-3/4-------------------------------|
Eb|-2-----2-2---------2-----2-2---------2-5-5-2-2-5-5-5-0-0-0-0-0-0-0-|

G |-------------------------------------------------------------------|
D |-------------------------------------------------------------------|
A |-----1-1-----1-1-3/4---1-1-----1-1-3/4-------------------------5/6-|
Eb|-0-2-----2-2---------2-----2-2---------2-5-5-2-2-5-5-5-0-0-0-0-----|

G |-----|
D |-----|
A |-5/6-|
Eb|-----|

Bridge: (2:22)
G |--------------------------------------------|
D |--------------------------------------------|
A |-4--6--8-11/4--3--------4--6--811/1615/--|
Eb|-------------------2--5-------------------2-|

G |-------------------|
D |-------------------|
A |---1-1-----1-1-3/4-|
Eb|-2-----2-2---------| (x7)

G |-----------|
D |-----------|
A |---1-1-----|
Eb|-2-----2-2-|

Chorus: (3:08)
G |-------------------------------------------------------------------|
D |-------------------------------------------------------------------|
A |---1-1-----1-1-3/4---1-1-----1-1-3/4-------------------------------|
Eb|-2-----2-2---------2-----2-2---------2-5-5-2-2-5-5-5-0-0-0-0-0-0-0-|

G |-----------------------------------------------------------------|
D |-----------------------------------------------------------------|
A |-----1-1-----1-1-3/4---1-1-----1-1-3/4---------------------------|
Eb|-0-2-----2-2---------2-----2-2---------2-5-5-2-2-5-5-5-0-0-0-0-0-|

G |-------|
D |-------|
A |-------|
Eb|-0-0-0-|

G |-------------------|
D |-------------------|
A |---1-1-----1-1-3/4-|
Eb|-2-----2-2---------| (x3)

G |-----------|
D |-----------|
A |---1-1-----|
Eb|-2-----2-2-|