Cher - Believe Chords & Tabs

 

Believe Chords & Tabs

Cher Chords & Tabs

Version: 1 Type: Tab

Believe Tab

-------------------------------------------------------------------------------
			     Believe - Cher
-------------------------------------------------------------------------------
Tabbed by: Josh
Email: build4477@hotmail.com

Tuning: standard

This is only the part that is in the chorus.  I couldnít find it anywhere so I tabbed it 
 There are other tabs with chords. Feel free to email me with any questions or comments.

[ Tab from: https://www.guitartabs.cc/tabs/c/cher/believe_tab.html ]
   Do you believe in life after love
e|-------------------------------------------------------------------------|
A|-----------------------------------0-------------------------------------|
D|---------------------------------------3---------------------------------|
G|-------------------------------------------4----1------------------------|
B|-------------------------------------------------------------------------|
E|-------------------------------------------------------------------------|
   I can feel something inside me say
   I really donít think youíre strong enough
   Do you believe in life after love
e|-------------------------------------------------------------------------|
A|-----------------------------------0-------------------------------------|
D|---------------------------------------3---------------------------------|
G|-------------------------------------------4----1------------------------|
B|-------------------------------------------------------------------------|
E|-------------------------------------------------------------------------|