Champs - Tequila Chords & Tabs

 

Tequila Chords & Tabs

Champs Chords & Tabs

Version: 3 Type: Tab

Tequila Tab

e---------------------------------------------------------|
b-------------8-------------------------8-----------------|
g-----10-10-8---8-10------------10-10-8---8-10------------|   3X
d-10-----------------10-----10----------------------------|
a---------------------------------------------------------|
E---------------------------------------------------------|
[ Tab from: https://www.guitartabs.cc/tabs/c/champs/tequila_tab_ver_3.html ]
e--------------------------------|
b----------9b--------------------|
g-----8-10----10-----------------|  3X
d-10-----------------------------|
a--------------------------------|
E--------------------------------|

e-----------------------------------------|
b-9-9-9-9-9-9-----------------------------|
g----------------10-----------------------|
d-----------------------------------------|
a-----------------------------------------|
E-----------------------------------------|