Celine Dion - Taking Chances Chords & Tabs

 

Taking Chances Chords & Tabs

Celine Dion Chords & Tabs

Version: 1 Type: Tab

Taking Chances Tab

   
 I tabbed the intro and verse from her live performances,so it's not exactly as the record...


Chords:
   D: xx0232
   G: 320033
  Bm: x24432
Bm/C: x3443x
Bm/A: x04432
  Em: 022000

Intro:
     D               G           D                 G
e|---------0--2------------------------0--2-----------------------|
B|-------3--------3---------3--------3---------3-----------3------|
G|-----2---------2--------0--------2---------2-----------0--------|
D|---0------------------0--------0---------------------0----------|
A|----------------------------------------------------------------|
E|-------------------3------------------------------3-------------|

Verse:
     D               G           D                 G
e|---------0--2------------------------0--2-----------------------|
B|-------3--------3---------3--------3---------3-----------3------|
G|-----2---------2--------0--------2---------2-----------0--------|
D|---0------------------0--------0---------------------0----------|
A|----------------------------------------------------------------|
E|-------------------3------------------------------3-------------|

      Bm                G             D                 G
e|------------2------------------------------0--2---------------------------|
B|--------------3---3--------0-------------3--------3----------3------------|
G|-------4--------4---------0--0--------2---------2----------0--------------|
D|---------4---------------0----------0-------------------0-----------------|
A|----2---------------------------------------------------------------------|
E|----------------------3-------------------------------3-------------------|

     D               G           D                  G
e|---------0--2------------------------0--2---------------------------------|
B|-------3--------3---------3--------3---------3-----------3----------------|
G|-----2---------2--------0--------2---------2-----------0------------------|
D|---0------------------0--------0---------------------0--------------------|
A|--------------------------------------------------------------------------|
E|-------------------3------------------------------3-----------------------|
[ Tab from: https://www.guitartabs.cc/tabs/c/celine_dion/taking_chances_tab.html ]
       Bm                Bm/C             Bm              Bm/C
e|---------------------------------------------------------------------------|
B|------------3-----------------3---------------3----------------3-----------|
G|-------4------4---4-------4-----4---4-----4-----4---4--------4-------------|
D|----------4-----4-----------4-----4---------4-----4--------4---------------|
A|-----2-----------------3----------------2----------------3-----------------|
E|---------------------------------------------------------------------------|


 D                          G
Don't know much about your life.
 D                          G
Don't know much about your world, but
       Bm                 G
Don't want to be alone tonight,
           D               G
On this planet they call earth.

D                        G
You don't know about my past, and
D                     G
I don't have a future   figured out.
     Bm                     Bm/C
And maybe this is going too fast.
     Bm                     Bm/C
And maybe it's not meant to last,

(CHORUS)

             D              G
what do you say to taking chances,
            Bm              Em
What do you say to jumping off the edge?
D                G                 Bm
  Never knowing if there's solid ground below
    Bm/A            Em
Or hand to hold, or hell to pay,
                D  G
What do you say,
                D  G
What do you say?


D                        G
I just want to start again,
     D                        G
And maybe you could show me how to try,
     Bm                     Bm/C
And maybe you could take me in,
  Bm                      Bm/C
Somewhere underneath your skin?

chorus...


      D
And I had my heart beaten down,
       G
But I always come back for more, yeah.
          D
Thereís nothing like love to pull you up,
              G
When youíre laying down on the floor there.
    D
So talk to me, talk to me,
       G
Like lovers do.
      D
Yeah walk with me, walk with me,
       G      Bm
Like lovers do,
      Bm/C   Bm  Bm/C
Like lovers do.

chorus..
D                            G
Donít know much about your life
       D                          G
And I donít know much about your world.