Catch 22 - As The Footsteps Die Out Forever Chords & Tabs

 

As The Footsteps Die Out Forever Chords & Tabs

Catch 22 Chords & Tabs

Version: 3 Type: Bass Tab

As The Footsteps Die Out Forever Bass Tab

G----------------------------9--------------------|
D---------------2-2-4-----------------------------|
A------0---2-2--------0-0-7--0--------------------|
E -0-0--4-------------------------2-2-2-4-5-5-4-2-|
[ Tab from: https://www.guitartabs.cc/tabs/c/catch_22/as_the_footsteps_die_out_forever_btab_ver_3.html ]
G-----------4-------------------------------------|
D---------------2-2-4-----------------------------|
A------0---2-2--------0-0-7-0---------------------|
E -0-0--4-------------------------2-2-2-4-5-5-4-2-|

The 7A, and the 9G on the first run through is played at the same time, but not on the 
While the 2A, and the 4G are played at the same time the second run through, but not the
one. Both arenít necessary but Hey thatís what he does so itís really a choice between
authentication, and well laziness! Have Fun!