Casualties - Police Brutality Chords & Tabs

 

Police Brutality Chords & Tabs

Casualties Chords & Tabs

Version: 1 Type: Bass Tab

Police Brutality Bass Tab

Intro:

|------------------------------------------|
|------------------------------------------|
|------------------------------------------|
|---5-5------------------------------------|

Verse 1:

|------------------------------------------|
|------------------------------------------|
|----------77777--5-4-22222----------------|
|---55555----------------------------------| x8

Chorus:

|------------------------------------------|
|-4444------2222---------------------------|
|------2222------2222----------------------|
|------------------------------------------| x4

Verse 1:

|------------------------------------------|
|------------------------------------------|
|----------77777--5-4-22222----------------|
|---55555----------------------------------| x4

Chorus:

|------------------------------------------|
|-4444------2222---------------------------|
|------2222------2222----------------------|
|------------------------------------------| x4

Verse 2:

|------------------------------------------|
|-------------55----55---------------------|
|-------77777----77----77------------------|
|-55555------------------------------------| x2
[ Tab from: https://www.guitartabs.cc/tabs/c/casualties/police_brutality_btab.html ]
|------------------------------------------|
|-------------5-55-------------------------|
|-------77777------7--3555------3555-------|
|-55555--------------------5555------5555--|

|------------------------------------------|
|------------------------------------------|
|-3555------3555------3555------3555-------|
|------5555------5555------5555------5555--|

|------------------------------------------|
|------------------------------------------|
|------------------------------------------|
|-33-555-xxx-------------------------------|

Verse 1:

|------------------------------------------|
|------------------------------------------|
|----------77777--5-4-22222----------------|
|---55555----------------------------------| x4

Chorus:

|------------------------------------------|
|-4444------2222---------------------------|
|------2222------2222----------------------|
|------------------------------------------| x4

Outro:

|------------------------------------------|
|------------------------------------------|
|----------77777--5-4-22222----------------|
|---55555----------------------------------| x4

|------------------------------------------|
|------------------------------------------|
|------------------------------------------|
|---5--------------------------------------|




                                                                          LÚ
                                                 lopunkettone_bmx@hotmail.it