Cascada - Every Time We Touch Chords & Tabs

 

Every Time We Touch Chords & Tabs

Cascada Chords & Tabs

Version: 2 Type: Tab

Every Time We Touch Tab

   
-------------------------------------------------------------------------------
                          EVERYTIME WE TOUCH - Cascada
-------------------------------------------------------------------------------
Tabbed by: k-rush
Email: k-rush@rescueteam.com

Tuning: Standard; all chord names and fret numbers relative to Capo 1

The other tabs are decent, except thereís a Capo and each one only has part of the song.


  Em              G              Bm            C
I still hear your voice when you sleep next to me

  Em              G           D
I still feel your touch in my dreams

   Em         G            Bm           C
Forgive me my weakness but I donít know why

    Em            G          D
Without you, itís hard to survive



                    C        D        Em
Cause every time we touch, I get this feeling

                  C       D           Em
And every time we kiss, I swear I can fly

                  C          D       Bm           Em
Canít you feel my heart beat fast? I want this to last

G              D
Need you by my side



                    C        D        Em
Cause every time we touch, I feel the static

                  C       D             Em
And every time we kiss, I reach for the sky

                  C          D     Bm            Em
Canít you feel my heart beat so? I canít let you go

G              D
Want you in my life



     Em          G            Bm          C
Your arms are my castle; your heart is my sky

     Em        G            D
They wipe away tears that I cry
[ Tab from: https://www.guitartabs.cc/tabs/c/cascada/every_time_we_touch_tab_ver_2.html ]
    Em           G                Bm                C
The good and the bad times, weíve been through them all

Em          G           D
You make me rise when I fall



                    C        D        Em
Cause every time we touch, I get this feeling

                  C       D           Em
And every time we kiss, I swear I can fly

                  C          D       Bm           Em
Canít you feel my heart beat fast? I want this to last

G              D
Need you by my side



                    C        D        Em
Cause every time we touch, I feel the static

                  C       D             Em
And every time we kiss, I reach for the sky

                  C          D     Bm            Em
Canít you feel my heart beat so? I canít let you go

G              D
Want you in my life



Riff:

e|--3-3-2-2-0-0---0---2---2-2---3---3-3-2-2-0-0---3-5---3-2-0--|
B|-------------------------------------------------------------|
G|-------------------------------------------------------------|
D|-------------------------------------------------------------|
A|-------------------------------------------------------------|
E|-------------------------------------------------------------|

e|--333-2-2-0-0---3-------3---2-0-2---3---3-2-3----------------|
B|--------------------3-------------3-------------3-3---0-3----|
G|----------------------------------------------------------2--|
D|-------------------------------------------------------------|
A|-------------------------------------------------------------|
E|-------------------------------------------------------------|



| /  slide up
| \  slide down
| h  hammer-on
| p  pull-off
| ~  vibrato
| +  harmonic
| x  Mute note
===============================================================================