Callalily - Pasan Chords & Tabs

 

Pasan Chords & Tabs

Callalily Chords & Tabs

Version: 1 Type: Tab

Pasan Tab

   
Carlo Angelo Del Rio
+ http://www.friendster.com/ecodelrio +

Pasan
Callalily

Intro : E  D  C (2x)

B-C-D (2x)

Guitar 1:
E  D  C (2x)

Guitar 2:
---------10---------7--5-------|
---7--8-----8--7----------8----|
-------------------7-----------|
-------------------------------|
-------------------------------|
-------------------------------|

Verse : E  D  C (2x)
Naglalakbay sa gitna ng dalampasigan
Minamasdan ang alon
Na humahampas sa nakaraan

G  D  C (2x)
Umihip ang hangin
Sa langit ako'y napatingin
Ulap ay sadyang kaydilim
Tila yata may bagyong parating

Pre Chorus : B  C (3x) D
Bakit ka lumuluha?
Bakit nagtataka?
Akala mo ba, ika'y iniwan na?

Chorus : G D - C  B  A - C
Hindi, pasan kita
Hindi mo ba nakikita
Hindi ka na, sa akin ay luluha pa...

Guitar 1:
E  D  C (2x)

Guitar 2:
---------10---------7--5-------|
---7--8-----8--7----------8----|
-------------------7-----------|
-------------------------------|
-------------------------------|
-------------------------------|


Verse : E  D  C (2x)
Nasaan na ang tapang
At lakas ng 'yong loob
Ngayo'y karuwagan na lang ba
Ang iyong sagot


G  D  C (2x)
Umihip ang hangin
Sa langit ako'y napatingin
Ulap ay sadyang kaydilim
Tila yata may bagyong parating

Pre Chorus : B  C (3x) D
Bakit ka lumuluha?
Bakit nagtataka?
Akala mo ba, ika'y iniwan na?
[ Tab from: https://www.guitartabs.cc/tabs/c/callalily/pasan_tab.html ]
Chorus : G D - C  B  A - C
Hindi, pasan kita
Hindi mo ba nakikita
Hindi ka na, sa akin ay luluha pa...

Guitar 1:
E  D  C (2x)

Guitar 2:
---75-------------------5-------|
----------8----------------------|
-------------97-----------------|
--------------------57----------|
---------------------------------|
---------------------------------|

---75----------------------------|
----------8-----------8----8------|
-------------97--9---9-7---------|
----------------------------------|
----------------------------------|
----------------------------------|

Bridge : A  B  C (2x) D
Hindi ko naman hangad
Ang anumang bagay sa mundo
Ang tanging hinihiling ko lamang
Ay yakapin mo

Chorus : B-C-B - D  C - B  
- C
At ngayon, pasan kita
Ngayon mo na makikita
Hindi ka na, sa akin ay luluha pa

G D - C  B  A - C
At ngayon, pasan kita
Ngayon mo na makikita
Hindi ka na, sa akin ay luluha pa...


Outro :

Guitar 1:
E  D  C (2x)

Guitar 2:
---------10---------7--5-----------|
---7--8-----8--7----------8--------|
-------------------7---------------|
-----------------------------------|
-----------------------------------|
-----------------------------------|

B-C-D (2x) G


Gs2 ko lang batiin cla:
Irene Rodriguez
Kevin Evangelista
Makairog Cuevas
Rafael Santos
Vincent Gonzalez = welcome to the band!

Rose Anne Dangoy = hi Jullianne! wahahaha. MissU.