Callalily - Isabel Chords & Tabs

 

Isabel Chords & Tabs

Callalily Chords & Tabs

Version: 2 Type: Tab

Isabel Tab

   
Title: Isabel
Album: Fisheye
tuning: standard

http://profile.imeem.com/FC3CmzI/music/f6Gl1MHG/alden_isabel/
^(this is where i listened to the music)

im not really sure about this.im not saying this is accurate.

Intro:
|------------------------------|
|------------------------------|
|-99-8/9-8-9-------9-8-9\6-----|(Repeat 2x)
|-xx--------6-7-9-------------|
|-77---------------------------|
|------------------------------|

|------------------------------------------------------|
|------------------------------------------------------|
|---8/9-8-9-------9-8----------------------------------|
|-----------6-7-9-----9-9/11-9--9/11-9--9/11-9--9/11-9-|
|------------------------------------------------------|
|------------------------------------------------------|

|-----------------------------|
|-----------------------------|
|--8/9-8-9-------9-8-9-8\6----|(Repeat 2x)
|---------6-7-9--------------|
|-----------------------------|
|-----------------------------|

|--------------------------------------------------------------|
|--------------------------------------------------------------|
|--8/9-8-9-------9-8-------------------------------------------|
|----------6-7-9-----9-9/11-9--9/11-9-(fading)--9/11-9--9/11-9-|
|--------------------------------------------------------------|
|--------------------------------------------------------------|

Verse:
|-----------------------------------------------|
|-----------------------------------------------|
|-9x9x9x9x99-4x4x4x4x44-6x6x6x6x66--------------|
|-9x9x9x9x99-4x4x4x4x44-6x6x6x6x66-7x7x7x7x77---|(Repeat 2x)
|-7x7x7x7x77-2x2x2x2x22-4x4x4x4x44-7x7x7x7x77---|
|----------------------------------5x5x5x5x55---|

Refrain:
|-22222222----------------------------------------------|
|-33333333----------------------------------------------|
|-44444444//88888888-99999999x99999999------------------|
|-44444444//88888888-99999999x99999999------------------|
|-22222222//66666666-77777777x77777777------------------|
|-22222222----------------------------------------------|

Chorus:
|------------------------------------|
|------------------------------------|
|-99999999-4444444-6666666-----------|
|-99999999-4444444-6666666-7777777---|(Repeat 2x)
|-77777777-2222222-4444444-7777777---|
|--------------------------5555555---|

Interlude:
Intro:
|------------------------------|
|------------------------------|
|-99-8/9-8-9-------9-8-9\6-----|(Repeat 2x)
|-xx--------6-7-9-------------|
|-77---------------------------|
|------------------------------|
[ Tab from: https://www.guitartabs.cc/tabs/c/callalily/isabel_tab_ver_2.html ]
|------------------------------------------------------|
|------------------------------------------------------|
|---8/9-8-9-------9-8----------------------------------|
|-----------6-7-9-----9-9/11-9--9/11-9--9/11-9--9/11-9-|
|------------------------------------------------------|
|------------------------------------------------------|

Verse2:
|-----------------------------------------------|
|-----------------------------------------------|
|-9x9x9x9x99-4x4x4x4x44-6x6x6x6x66--------------|
|-9x9x9x9x99-4x4x4x4x44-6x6x6x6x66-7x7x7x7x77---|(Repeat 2x)
|-7x7x7x7x77-2x2x2x2x22-4x4x4x4x44-7x7x7x7x77---|
|----------------------------------5x5x5x5x55---|

Refrain:
|-22222222----------------------------------------------|
|-33333333----------------------------------------------|
|-44444444//88888888-99999999x99999999------------------|
|-44444444//88888888-99999999x99999999------------------|
|-22222222//66666666-77777777x77777777------------------|
|-22222222----------------------------------------------|

Chorus:
|------------------------------------|
|------------------------------------|
|-99999999-4444444-6666666-----------|
|-99999999-4444444-6666666-7777777---|(Repeat 2x)
|-77777777-2222222-4444444-7777777---|
|--------------------------5555555---|

Adlib:A-E-B-C#m-A(2x)
(this part is tough, i cant figure it out)

Chords:C#m-B-A-A-C#m-B-A (1 strum)

Chorus:
|------------------------------------|
|------------------------------------|
|-99999999-4444444-6666666-----------|
|-99999999-4444444-6666666-7777777---|(Repeat 2x)
|-77777777-2222222-4444444-7777777---|
|--------------------------5555555---|

|------------------------------------------|
|------------------------------------------|
|-99999999-4444444-6x6x6x6x6x6-------------|
|-99999999-4444444-6x6x6x6x6x6---7777777---|
|-77777777-2222222-4x4x4x4x4x4//-7777777---|
|--------------------------------5555555---|

|------------------------------------|
|------------------------------------|
|-99999999-4444444-6666666-----------|
|-99999999-4444444-6666666-7777777---|
|-77777777-2222222-4444444-7777777---|
|--------------------------5555555---|



Lyrics:
I.
I understand
Why you can't hold
My hand
But it hurts me
More
Everytime I see you
Walk out the
Door

Chorus:
I love you and you love me too
But why can't they understand,
Why can't they understand
For us it's right
But for them it's wrong
ooh no, ooh no..

II.
Everythings unfair for us
I'm here and you are there
But I can't even see u

Chorus:
I love you and you love me too
But why can't they understand,
Why can't they understand
For us it's right
But for them it's wrong
ooh no, ooh no..

Refrain:
I know it's hard,
But your my happiness
I know it's hard,
But your still there

Chorus:
I love you and you love me too
But why can't they understand,
Why can't they understand

ChorusII:
I love you and you love me too
why they did'nt understands2x
I love you and you love me too
Still they can't understand2x
(Repeat chorus I)