Cake - You Turn The Screws Chords & Tabs

 

You Turn The Screws Chords & Tabs

Cake Chords & Tabs

Version: 1 Type: Bass Tab

You Turn The Screws Bass Tab

If you have questions, my AIM name is Cameron5.

YOU TURN THE SCREWS
by
CAKE

Tabbed by: Cameron L. a.k.a. Ska Bassist


|Verse|

Part 1:
G|---------------------|
D|----------2-2--------| x2
A|--------2-----2------|
E|--0-0-----------3-2--|


G|----------2-2--------|
D|--------2-----2------| x2
A|--0-0-----------3-2--|
E|---------------------|

Part 2:
G|-------------------------------|
D|--0-0---2-4-4---2-0-0---2-4-4--|
A|-------------------------------|
E|-------------------------------|
[ Tab from: https://www.guitartabs.cc/tabs/c/cake/you_turn_the_screws_btab.html ]
Part 3:
G|--------------------|
D|--------------------|
A|---------2-2-0---0--|
E|--3-3--3-------3----|


G|--------------------------|
D|--------------------------|
A|---------0-0--------------|
E|--2-2--2-----3-2-3p2-0-0--|
Note: The last two zero's on
the end are the first two notes
of part one, which you repeat.

Part 4:
G|--------------------|
D|--------------------|
A|---------2-2-0---0--|
E|--3-3--3-------3----|

It just repeats these couple parts over and over again. To my suprise, that's the whole 
Good luck!


 Cameron LeViere 2007, all rights reserved