Cage The Elephant - Beat Your Eardrums Chords & Tabs

 

Beat Your Eardrums Chords & Tabs

Cage The Elephant Chords & Tabs

Version: 1 Type: Bass Tab

Beat Your Eardrums Bass Tab

Perfect Confusion-Beat Your Eardrums
intro
----------------7-----|
--------------79-97---|
------------79-----9--|
--/7-/7-/7------------|

intro part 2
------------   --97--------|
------------   ----97-7----|
-----5-77---X3 ------9-97--|
--77-----5--   ------------|

intro part 3
------------   ------------|
------------   --7b97-7----|
-----5-77---X3 ------9-97--|
--77-----5--   ------------|

intro part 1 again

verse
-------------------------|
-------97----------------|
-----77---97---775-55----|X2
--7/--------77-------5---|  do 2 7s instead of slides after the first time

chorusX2
------------   --97--------|
------------   ----97-7----|
-----5-77---X3 ------9-97--|
--77-----5--   ------------|

pre verse
-------|
-------|
--5----|
----5--|
[ Tab from: https://www.guitartabs.cc/tabs/c/cage_the_elephant/beat_your_eardrums_btab.html ]
verse
-------------------------|
-------97----------------|
-----77---97---775-55----|X2
--7/--------77-------5---|

pre chorus
------------------|
------------97----|
--------------97--|or something like that
--77-577-577------|

chorusX2

Pre verse

bridge solo maybe
------------------------------------------|
---------9~-97-7--------------7/97-7------|
------779--9--9-97--------7-------9-97----|
--7/-7------------9--77-77--77---------9--|

----------------------------------------|
----------7/97-7-------------7/97-7-----|
--------------9-97-------7-------9-97---|
--77-77-77--------9-77-77--77--------9--|

---------------------------------------------------------------|
-------------------------------------------------------999997--|
----5~7~--5~7~-------------------------------------------------|
--7~----7~-----77--77--77--77-5h7-5h7-77--77--77-77-77---------|

chorusx2