Burning Spear - Resting Place Chords & Tabs

 

Resting Place Chords & Tabs

Burning Spear Chords & Tabs

Version: 1 Type: Tab

Resting Place Tab

The Following Is The Main Patterns Of The Lead Guitar Riffs Played By Earl Chinna 
Smith. Listen To The Song & Feel Free To Improv.
Send Corrections Through E-mail.

Tabbed By Roddy
Email muruly59@gmail.com

Lead Guitar Intro (x2)

e|-------------------------|
B|--7-----5h---------------|
G|------------5-6-7--------|
D|-------------------------|
A|-------------------------|    
E|-------------------------|

 Played Within The Verse & Chorus
[ Tab from: https://www.guitartabs.cc/tabs/b/burning_spear/resting_place_tab.html ]
e|---------------------------------------| 
B|---------------------------------------| 
G|---------------------------------------| 
D|-------4---55555555--45555554-5------| 
A|----5----------------------------------|    
E|---------------------------------------|

 Play @ The End Of Verse 1, Right Before The Chorus (What Says The Father...)

e|--------------------------------| 
B|--5v------7--5----5v------------| 
G|----------------6---------------| 
D|--------------------------------|
A|--------------------------------| 
E|--------------------------------|

Peace