Built To Spill - Conventional Wisdom Chords & Tabs

 

Conventional Wisdom Chords & Tabs

Built To Spill Chords & Tabs

Version: 1 Type: Tab

Conventional Wisdom Tab

   
CONVENTIONAL WISDOM
BUILT TO SPILL
tabbed by : galateastilston

Tuning: Standard

This is used as the intro, and also as an interlude several times during the song. I'm 
sure as to the accuracy of the 3rd riff, so please correct me if I'm wrong.

Riff 1
e|---------------------------------------------------------------|
B|-----------------0---0---0---0---0-----------------------------|
G|---------------0---0---0---0---0-------------------------------|
D|-0-2h4-2h4-2-0-------------------------------------------------|
A|---------------------------------------------------------------|
E|---------------------------------------------------------------|
[ Tab from: https://www.guitartabs.cc/tabs/b/built_to_spill/conventional_wisdom_tab.html ]
Riff 2
  D5             D
e|---------------2-----------------------------------------------|
B|-7--7---5/7-5--3----------3------3--------3--------------------|
G|-7--7----------2------0h2----0h2----2--0-----------------------|
D|-7--7----------------------------------------------------------|
A|---------------------------------------------------------------|
E|---------------------------------------------------------------|

Riff 3
e|---------------------------------------------------------------|
B|-7-7--17/19-20h19-17-1917h19-17h1917h19--17--15------------|
G|-7--7----------------------------------------------------------|
D|-7--7----------------------------------------------------------|
A|---------------------------------------------------------------|
E|---------------------------------------------------------------|

INTRO:
Riff 1

Riff 2 (x2)
Riff 3
Riff 2