Bronx - Strobe Life Chords & Tabs

 

Strobe Life Chords & Tabs

Bronx Chords & Tabs

Version: 1 Type: Bass Tab

Strobe Life Bass Tab

Band: The Bronx
Song: Strobe Life
Album: self-title
Tabbed by: choke383
Normal Tuning: GDAE


double digit= 같


G|------------9999757---7-7777----7-7777--|
D|10-10101097---------5-5-5555------------|
A|-----------------------------55-5-5555--|
E|----------------------------------------|x4
  같 같같같

0:29
G|----------------------------------|
D|-----101010-101010-7777777h99999--|
A|77777-----------------------------|
E|----------------------------------|x2
       같같같 같같같

0:41
G|----------------------------------|
D|--99779955555h77------------------|
A|77--------------55555h77----------|
E|------------------------77777870--|x4


1:07
G|----------------------------------|
D|-----101010-101010-7777777h99999--|
A|77777-----------------------------|
E|----------------------------------|x2
       같같같 같같같
[ Tab from: https://www.guitartabs.cc/tabs/b/bronx/strobe_life_btab.html ]
1:19
G|----------------------------------|
D|--99779955555h77------------------|
A|77--------------55555h77----------|
E|------------------------77777870--|x4


1:43
G|----------------------------------|
D|----------------5555555-----------|
A|-----------------------555555555--|
E|5555555555555555------------------|x4


2:09 (three first times let them ring, last time finger them as much as you want)
G|---------------------|
D|---------------------|
A|------------------7--|
E|8-----7-----5--------|x4


2:33 (last time stop after the second 8 et change riffs)
G|------------------------------------|
D|------------------------------------|
A|777777777777991010------------------|
E|------------------8888888877777777--|x5
                같같

3:08  (  ( ) <-- done on the last time)
G|------------9999757---7-7777----7-7777-------|
D|10-10101097---------5-5-5555-----------------|
A|-----------------------------55-5-5555-(/12)-|
E|---------------------------------------------|x11
  같 같같같



Any comments, questions or jokes send to style444@hotmail.com