Bronx - Heart Attack American Chords & Tabs

 

Heart Attack American Chords & Tabs

Bronx Chords & Tabs

Version: 2 Type: Bass Tab

Heart Attack American Bass Tab

Tabbed by J Shrimp
Heart Attack American  The Bronx

Intro is guitar and drums
Verse riff
                                                               1.2.3.
G:I----------------------------------------------------I-------------------|
D:I-o-----------------------------------------------o--I-------------------|
A:I-o---0---0-0-0-0-0-0-0-0-0-0-3-3-3--------------o--I--------------------|
E:I-----------------------------------------------------I------------------|

        4.
G:I-----------------------------------------I---------------|3x
D:I-------------------------------------o---I---------------|
A:I---5----5-5-5-5-5-5-3-5-5-----------o---I----------------|
E:I----------------------h------------------I---------------|

Mini Solo (guitar bridge)
G:----------------nice and simple-----------------------|Still nice and
D:----------------at the beginning ---------------------|simple
A:-----0-0-------of the next 3 measures---0-0----0-0-0--|
E:------------------Last Measure------------------------|

Verse 2x

Chorus
                                                                                         
                                         2x
G:-----------------------------------------------------------------------------------|
D:-----------------------------------------------------------------------------------|
A:----0----0--0-0-5---------------3-3/5---5-5-5-5-5-5-5-5-5-5-5-5--------------------|
E:---------------------3----3--3-3---------------------------------------------------|

[ Tab from: https://www.guitartabs.cc/tabs/b/bronx/heart_attack_american_btab_ver_2.html ]
Short stop for guitar
Verse 3x

Stops Bridge

G:-----------------------------------------------------------------------------------|
D:-----------------------------------------------------------------------------------|
A:---0-------0---0---------0---0---------0---0----------0----------------------------|
E:-----------------------------------------------------------------------------------|

Verse Variation (Intro Line)

G:-----------------------------------------------------------------------------3x-----|
D:------------------------------------------------------------------------------------|
A:---0---0-0-0-0-0-0-0-0-3-3-3-5---5-5-5-5-5-5-6-6-6-5-3-3----------------------------|
E:------------------------------------------------------------------------------------|

       4th time
G:------------------------------------------------------------------------------------|
D:------------------------------------------------------------------------------------|
A:---0---0-0-0-0-0-0-0-0-3-3-3-5---5-3-5---5-3-5---5-6-6-6-5-3-3----------------------|
E:------------------------------------------------------------------------------------|

Chorus 4x

Verse 3x
But end with this variation
G:------------------------------------------------------------------------------------|
D:------------------------------------------------------------------------------------|
A:----6-6-6-5-3-0-0-------------------------------------------------------------------|
E:------------------------------------------------------------------------------------|