Britney Spears - Toxic Chords & Tabs

 

Toxic Chords & Tabs

Britney Spears Chords & Tabs

Version: 2 Type: Bass Tab

Toxic Bass Tab

   
----------------------------------------------------------------------------
                             TOXIC  BRITNEY SPEARS
----------------------------------------------------------------------------

Tabbed By : TheRootsRadish
e-mail: justin.takayama@gmail.com

Tuning: Standard

Verse and Bridge:

G|---------8-10------------------------------------------------------------|
D|-------------------------------------------------------------------------|
A|-----------------------------------------------------------8/1010101010--|
E|--8--8\--------8--8\----8-8-10-11-10-8-10--11-1111111111\-3--------------|

G||--------8---------------------------8-------8-10------------------------|
D||----------10--------------------------10--------------------------------|
A||---------------------8/10-8/10\-----------------------------------------|
E||-8--8\--------8--(8)--------------8-------8\-----8-8\--8-8-10-11-10-8-10|
[ Tab from: https://www.guitartabs.cc/tabs/b/britney_spears/toxic_btab_ver_2.html ]
G|-------------------------------------8----------------------------------||
D|---------------------------------------10--------8/108/10\--------------||
A|------------8/1010101010------------------------------------------------||
E|--11-11\--3----------------8-8\--8------------(8)-----------------------||
repeat section.
Break (rest)
Chorous:
G|-------||----------------------------------------------------------------|
D|-------||-----------------10--------10-----------------------------------|
A|-------||----------------------------------------------------------------|
E|--/15\-||--8-8\-/11-11--11----10--10-----9--9--99--8-8\-/11-11--4--4\----|

G|--------------------||
D|--------------------||
A|--/10101010---------||
E|-----------10101010-||
repeat section

The rest of the chorous is basicly the same as this section with some slight 
 It goes back to the verse but the second time this part is shorter.  It then goes 
back to chorous 
there is a break then it comes back in.  Feel free to email me any questions.

| /  slide up
| \  slide down
| h  hammer-on
| p  pull-off
| ~  vibrato
| +  harmonic
| x  Mute note
============================================================================