Bright Eyes - First Day Of My Life Chords & Tabs

 

First Day Of My Life Chords & Tabs

Bright Eyes Chords & Tabs

Version: 5 Type: Tab

First Day Of My Life Tab

   
Title : First Day Of My Life
Artist : Bright Eyes
Album: Im Wide Awake, Its Morning
Tabbed By: Billy Bo Bob (pinkxo@gmail.com)
Standard Tuning
Total Length: 2:52
Acoustic

Capo 4th fret

This is the whole song. AIM me with questions at chasin9rainb0ws.


   C             E           Am                    F
E--|-----0-0-0-0-----0-0-0-0-----0-0-0-0---0-0-0-0-----1-1-1-1----|
B--|-----1-1-1-1-----0-0-0-0-----1-1-1-1---1-1-1-1-----1-1-1-1----|
G--|-----0-0-0-0-----1-1-1-1-----2-2-2-2---2-2-2-2-2-2-2-2-2-2----|
D--|-2-2-2-2-2-2-----2-2-2-2-2-2-2-2-2-2-2-2-2-2-2-3-3-3-3-3-3----|
A--|-3-3-3-------2-2-2-2-2-2-0-0-0-------0-0----------------------|
E--|-------------0-0----------------------------------------------|

                                        This is the first day..

     G           C                      C            E
E--|-----3-3-3-3-----0-0-0-0---0-0-0-0------0-0-0-0-----0-0-0-0--|
B--|-----3-3-3-3-----1-1-1-1---1-1-1-1------1-1-1-1-----0-0-0-0--|
G--|-----0-0-0-0-----0-0-0-0---0-0-0-0------0-0-0-0-----1-1-1-1--|
D--|-----0-0-0-0-2-2-2-2-2-2-2-2-2-2-2--2-2-2-2-2-2-----2-2-2-2--|
A--|-2-2-2-2-2-2-3-3-3-------3----------3-3-3-------2-2-2-2-2-2--|
E--|-3-3--------------------------------------------0-0----------|


                           ..swear I was born..

    Am                     F          G            C
E--|-----0-0-0-0---0-0-0-0-----1-1-1-1-----3-3-3-3------0-0-0-0--|
B--|-----1-1-1-1---1-1-1-1-----1-1-1-1-----3-3-3-3------1-1-1-1--|
G--|-----2-2-2-2---2-2-2-2-2-2-2-2-2-2-----0-0-0-0------0-0-0-0--|
D--|-2-2-2-2-2-2-2-2-2-2-2-3-3-3-3-3-3-----0-0-0-0--2-2-2-2-2-2--|
A--|-0-0-0-------0-0-------------------2-2-2-2-2-2--3-3-3--------|
E--|-----------------------------------3-3-----------------------|


                 ..I went out in the rain suddenly..
                  C            E           Am
E--|----0-0-0-0------0-0-0-0-----0-0-0-0-----0-0-0-0---0-0-0-0--|
B--|----1-1-1-1------1-1-1-1-----0-0-0-0-----1-1-1-1---1-1-1-1--|
G--|----0-0-0-0------0-0-0-0-----1-1-1-1-----2-2-2-2---2-2-2-2--|
D--|--2-2-2-2-2--2-2-2-2-2-2-----2-2-2-2-2-2-2-2-2-2-2-2-2-2-2--|
A--|--3-3--------3-3-3-------2-2-2-2-2-2-0-0-0-------0-0--------|
E--|-------------------------0-0--------------------------------|

      D7                  G
E--|----2-2-2-2---2-2-2-2-----3-3-3-3-----3-3-3-3--|
B--|----1-1-1-1---1-1-1-1-----3-3-3-3-----3-3-3-3--|
G--|----2-2-2-2---2-2-2-2-----0-0-0-0-----0-0-0-0--|
D--|--0-0-------0-0-----------0-0-0-0-----0-0-0-0--|
A--|----------------------2-2-2-2-2-2-2-2-2-2-2-2--|
E--|----------------------3-3---------3-3----------|


   Yours was the first face that I saw..
    C             E           Am                    F
E--|-----0-0-0-0-----0-0-0-0-----0-0-0-0---0-0-0-0-----1-1-1-1----|
B--|-----1-1-1-1-----0-0-0-0-----1-1-1-1---1-1-1-1-----1-1-1-1----|
G--|-----0-0-0-0-----1-1-1-1-----2-2-2-2---2-2-2-2-2-2-2-2-2-2----|
D--|-2-2-2-2-2-2-----2-2-2-2-2-2-2-2-2-2-2-2-2-2-2-3-3-3-3-3-3----|
A--|-3-3-3-------2-2-2-2-2-2-0-0-0-------0-0----------------------|
E--|-------------0-0----------------------------------------------|


                                       ..Dont know where I am..
     G           C                      C            E
E--|-----3-3-3-3-----0-0-0-0---0-0-0-0------0-0-0-0-----0-0-0-0--|
B--|-----3-3-3-3-----1-1-1-1---1-1-1-1------1-1-1-1-----0-0-0-0--|
G--|-----0-0-0-0-----0-0-0-0---0-0-0-0------0-0-0-0-----1-1-1-1--|
D--|-----0-0-0-0-2-2-2-2-2-2-2-2-2-2-2--2-2-2-2-2-2-----2-2-2-2--|
A--|-2-2-2-2-2-2-3-3-3-------3----------3-3-3-------2-2-2-2-2-2--|
E--|-3-3--------------------------------------------0-0----------|


                                                 ..to go..
    Am                     F                       G
E--|-----0-0-0-0---0-0-0-0-----1-1-1-1-----1-1-1-1-----3-3-3-3--|
B--|-----1-1-1-1---1-1-1-1-----1-1-1-1-----1-1-1-1-----3-3-3-3--|
G--|-----2-2-2-2---2-2-2-2-2-2-2-2-2-2-2-2-2-2-2-2-----0-0-0-0--|
D--|-2-2-2-2-2-2-2-2-2-2-2-3-3-3-3-3-3-3-3-3-3-3-3-----0-0-0-0--|
A--|-0-0-0-------0-0-------------------------------2-2-2-2-2-2--|
E--|-----------------------------------------------3-3----------|


E--|------3-3-3-3--|
B--|------3-3-3-3--|
G--|------0-0-0-0--|
D--|------0-0-0-0--|
A--|--2-2-2-2-2-2--|
E--|--3-3----------|


So I thought Id..

     C   E   Am                   F            G
E--|-----0-----0-0-0-0----0-0-0-0-----1-1-1-1----3-3-3-3--|
B--|-1---0-----1-1-1-1---1-1-1-1-----1-1-1-1----3-3-3-3--|
G--|-0---1---2-2-2-2-2----2-2-2-2-2-2-2-2-2-2----0-0-0-0--|
D--|-2-------2-2-2-2-2--2-2-2-2-2-3-3-3-3-3-3----0-0-0-0--|
A--|---------0-0--------0-0--------------------2-2-2-2-2--|
E--|-------------------------------------------3----------|


  ..especially am slow..

     C   E   Am                   Dmadd9/A
E--|-----0-----0-0-0-0----0-0-0-0---0-0-0-0---0-0-0-0---0-0-0-0|
B--|-1---0-----1-1-1-1---1-1-1-1---3-3-3-3---3-3-3-3---3-3-3-3|
G--|-0---1---2-2-2-2-2----2-2-2-2---2-2-2-2---2-2-2-2---2-2-2-2|
D--|-2-------2-2-2-2-2--2-2-2-2-2-3-3-------3-3-------3-3------|
A--|---------0-0--------0-0-------0---------0---------0--------|
E--|-----------------------------------------------------------|


             Home..
               C           G           Am
E--|---0-0-0-0-----0-0-0-0-----3-3-3-3-----0-0-0-0-----0-0-0-0--|
B--|---3-3-3-3-----1-1-1-1-----3-3-3-3-----1-1-1-1-----1-1-1-1--|
G--|---2-2-2-2-----0-0-0-0-----0-0-0-0-----2-2-2-2-----2-2-2-2--|
D--|-3-3-------2-2-2-2-2-2-----0-0-0-0-2-2-2-2-2-2-2-2-2-2-2-2--|
A--|-0---------3-3-3-------2-2-2-2-2-2-0-0-0-------0-0-0--------|
E--|-----------------------3-3----------------------------------|


    Dmadd9/A         Fm/A
E--|---0-0-----0-----8-8-8-8-8-8-8--|
B--|---3-----------3-6-6-6-6-6-6-6--|
G--|---2-----2-----2-5-5-5-5-5-5-5--|
D--|-3-3---3-----3---6-6-6-6-6-6-6--|
A--|-0-0----------------------------|
E--|--------------------------------|
[ Tab from: https://www.guitartabs.cc/tabs/b/bright_eyes/first_day_of_my_life_tab_ver_5.html ]
                I remember the time..
   C             E           Am                    F
E--|-----0-0-0-0-----0-0-0-0-----0-0-0-0---0-0-0-0-----1-1-1-1----|
B--|-----1-1-1-1-----0-0-0-0-----1-1-1-1---1-1-1-1-----1-1-1-1----|
G--|-----0-0-0-0-----1-1-1-1-----2-2-2-2---2-2-2-2-2-2-2-2-2-2----|
D--|-2-2-2-2-2-2-----2-2-2-2-2-2-2-2-2-2-2-2-2-2-2-3-3-3-3-3-3----|
A--|-3-3-3-------2-2-2-2-2-2-0-0-0-------0-0----------------------|
E--|-------------0-0----------------------------------------------|


                ..just to meet me..
     G           C                      C            E
E--|-----3-3-3-3-----0-0-0-0---0-0-0-0------0-0-0-0-----0-0-0-0--|
B--|-----3-3-3-3-----1-1-1-1---1-1-1-1------1-1-1-1-----0-0-0-0--|
G--|-----0-0-0-0-----0-0-0-0---0-0-0-0------0-0-0-0-----1-1-1-1--|
D--|-----0-0-0-0-2-2-2-2-2-2-2-2-2-2-2--2-2-2-2-2-2-----2-2-2-2--|
A--|-2-2-2-2-2-2-3-3-3-------3----------3-3-3-------2-2-2-2-2-2--|
E--|-3-3--------------------------------------------0-0----------|


    Am                     F          G            C
E--|-----0-0-0-0---0-0-0-0-----1-1-1-1-----3-3-3-3------0-0-0-0--|
B--|-----1-1-1-1---1-1-1-1-----1-1-1-1-----3-3-3-3------1-1-1-1--|
G--|-----2-2-2-2---2-2-2-2-2-2-2-2-2-2-----0-0-0-0------0-0-0-0--|
D--|-2-2-2-2-2-2-2-2-2-2-2-3-3-3-3-3-3-----0-0-0-0--2-2-2-2-2-2--|
A--|-0-0-0-------0-0-------------------2-2-2-2-2-2--3-3-3--------|
E--|-----------------------------------3-3-----------------------|


           And you said this is the first day..
                  C            E           Am
E--|----0-0-0-0------0-0-0-0-----0-0-0-0-----0-0-0-0---0-0-0-0--|
B--|----1-1-1-1------1-1-1-1-----0-0-0-0-----1-1-1-1---1-1-1-1--|
G--|----0-0-0-0------0-0-0-0-----1-1-1-1-----2-2-2-2---2-2-2-2--|
D--|--2-2-2-2-2--2-2-2-2-2-2-----2-2-2-2-2-2-2-2-2-2-2-2-2-2-2--|
A--|--3-3--------3-3-3-------2-2-2-2-2-2-0-0-0-------0-0--------|
E--|-------------------------0-0--------------------------------|


       ..glad I didnt die..
        F          G            C
E--|-----1-1-1-1-----3-3-3-3-----0-0-0-0-----0-0-0-0--|
B--|-----1-1-1-1-----3-3-3-3-----1-1-1-1-----1-1-1-1--|
G--|-2-2-2-2-2-2-----0-0-0-0-----0-0-0-0-----0-0-0-0--|
D--|-3-3-3-3-3-3-----0-0-0-0-2-2-2-2-2-2-2-2-2-2-2-2--|
A--|-------------2-2-2-2-2-2-3-3-3-------3-3-3--------|
E--|-------------3-3----------------------------------|


           ..Now I dont care..
      C             E
E--|-----0-0-0-0-----0-0-0-0---|
B--|-----1-1-1-1-----0-0-0-0---|
G--|-----0-0-0-0-----1-1-1-1---|
D--|-2-2-2-2-2-2-----2-2-2-2---|
A--|-3-3-3-------2-2-2-2-2-2---|
E--|-------------0-0-----------|


                           ..And Id probably be..
    Am                     F                       G
E--|-----0-0-0-0---0-0-0-0-----1-1-1-1-----1-1-1-1-----3-3-3-3--|
B--|-----1-1-1-1---1-1-1-1-----1-1-1-1-----1-1-1-1-----3-3-3-3--|
G--|-----2-2-2-2---2-2-2-2-2-2-2-2-2-2-2-2-2-2-2-2-----0-0-0-0--|
D--|-2-2-2-2-2-2-2-2-2-2-2-3-3-3-3-3-3-3-3-3-3-3-3-----0-0-0-0--|
A--|-0-0-0-------0-0-------------------------------2-2-2-2-2-2--|
E--|-----------------------------------------------3-3----------|


E--|------3-3-3-3--|
B--|------3-3-3-3--|
G--|------0-0-0-0--|
D--|------0-0-0-0--|
A--|--2-2-2-2-2-2--|
E--|--3-3----------|


     So if you want to be with me..
     C   E   Am                   F            G
E--|-----0-----0-0-0-0----0-0-0-0-----1-1-1-1----3-3-3-3--|
B--|-1---0-----1-1-1-1---1-1-1-1-----1-1-1-1----3-3-3-3--|
G--|-0---1---2-2-2-2-2----2-2-2-2-2-2-2-2-2-2----0-0-0-0--|
D--|-2-------2-2-2-2-2--2-2-2-2-2-3-3-3-3-3-3----0-0-0-0--|
A--|---------0-0--------0-0--------------------2-2-2-2-2--|
E--|-------------------------------------------3----------|


  ..have to wait and see..
     C   E   Am                   Dmadd9/A                      C
E--|-----0-----0-0-0-0----0-0-0-0---0-0-0-0---0-0-0-0---0-0-0-0--|
B--|-1---0-----1-1-1-1---1-1-1-1---3-3-3-3---3-3-3-3---3-3-3-3--|
G--|-0---1---2-2-2-2-2----2-2-2-2---2-2-2-2---2-2-2-2---2-2-2-2--|
D--|-2-------2-2-2-2-2--2-2-2-2-2-3-3-------3-3-------3-3--------|
A--|---------0-0--------0-0-------0---------0---------0----------|
E--|-------------------------------------------------------------|


         ..lottery..
               C           G           Am
E--|---0-0-0-0-----0-0-0-0-----3-3-3-3-----0-0-0-0-----0-0-0-0--|
B--|---3-3-3-3-----1-1-1-1-----3-3-3-3-----1-1-1-1-----1-1-1-1--|
G--|---2-2-2-2-----0-0-0-0-----0-0-0-0-----2-2-2-2-----2-2-2-2--|
D--|-3-3-------2-2-2-2-2-2-----0-0-0-0-2-2-2-2-2-2-2-2-2-2-2-2--|
A--|-0---------3-3-3-------2-2-2-2-2-2-0-0-0-------0-0-0--------|
E--|-----------------------3-3----------------------------------|


   ..Besides maybe this time..
      Dmadd9/A
E--|----0-0-0-0---0-0-0-0---0-0-0-0---0-0-0-0--|
B--|----3-3-3-3---3-3-3-3---3-3-3-3---3-3-3-3--|
G--|----2-2-2-2---2-2-2-2---2-2-2-2---2-2-2-2--|
D--|--3-3-------3-3-------3-3-------3-3--------|
A--|--0---------0---------0---------0----------|
E--|-------------------------------------------|


    ..me..
     C           G           Am
E--|---0-0-0-0-----3-3-3-3-----0-0-0-0-----0-0-0-0----|
B--|---1-1-1-1-----3-3-3-3-----1-1-1-1-----1-1-1-1----|
G--|---0-0-0-0-----0-0-0-0-----2-2-2-2-----2-2-2-2----|
D--|-2-2-2-2-2-2-----0-0-0-0-2-2-2-2-2-2-2-2-2-2-2-2--|
A--|-3-3-3-------2-2-2-2-2-2-0-0-0-------0-0-0--------|
E--|-------------3-3----------------------------------|


    Dmadd9/A              Fm/A
E--|---0-0-------0-0--------8-8-8-8-8-8-8-8-8--|
B--|---3---------3----------6-6-6-6-6-6-6-6-6--|
G--|---2-----2---2-----2--5-5-5-5-5-5-5-5-5-5--|
D--|-3-3---3---3-3---3----6-6-6-6-6-6-6-6-6-6--|
A--|-0-0-------0-0-----------------------------|
E--|-------------------------------------------|

   C             E           Am
E--|-----0-0-0-0-----0-0-0-0-----0-0-0-0---0-0-0-0--|
B--|-----1-1-1-1-----0-0-0-0-----1-1-1-1---1-1-1-1--|
G--|-----0-0-0-0-----1-1-1-1-----2-2-2-2---2-2-2-2--|
D--|-2-2-2-2-2-2-----2-2-2-2-2-2-2-2-2-2-2-2-2-2-2--|
A--|-3-3-3-------2-2-2-2-2-2-0-0-0-------0-0--------|
E--|-------------0-0--------------------------------|


     Dmadd9/A                  Fm/A                        C
E--|-------------0--------------------------8--------------0--|
B--|-------3-----------3--------------6-----------6--------1--|
G--|-----2---2-----2-----2---2------5---5-----5-----5---5--0--|
D--|---3-------3-----3-----3------6-------6-----6-----6----2--|
A--|-0-0------------------------0-0------------------------3--|
E--|----------------------------------------------------------|