Briggs - Dont Care Chords & Tabs

 

Dont Care Chords & Tabs

Briggs Chords & Tabs

Version: 1 Type: Bass Tab

Dont Care Bass Tab

Band: The Briggs
Album: back to higher ground
Song: Donít Care

Intro

G|-----------------2-2222221-1/666\-|
D|-2-222222-------------------------| 
A|---------44442222-----------------| x2
E|----------------------------------|

Verse 0:10

G|-------------------------1-1/666\-|
D|-2-222222-------------------------| 
A|---------444422220-000000---------| x4
E|----------------------------------|

Chorus 0:33

G|----------------------------------|
D|---------22222222-----------------| 
A|-00002222--------4444222200000000-|
E|----------------------------------|

G|----------------------------------|
D|---------22222222-----------------| 
A|-00002222--------00002222---------|
E|-------------------------0~-------|

Verse 0:45

G|----------------------------------|
D|-22222222--------22222222---------| 
A|---------44442222--------44442222-|
E|----------------------------------|

G|-------------------------1-1/666\-|
D|-2222222222222222-----------------| 
A|-----------------00000000---------| x2
E|----------------------------------|

G|----------------------------------|
D|-22222222--------22222222---------| 
A|---------4---2-----------4---2----|
E|----------------------------------|

G|----------------------------------|
D|-2222222222222222-----------------| 
A|-------------------------22222222-|
E|-----------------22222222---------|

Chorus 1:13

G|----------------------------------|
D|---------22222222-----------------| 
A|-00002222--------4444222200000000-|
E|----------------------------------|

G|----------------------------------------|
D|---------22222222-----------------------| 
A|-00002222--------00002222--------4422---|
E|-------------------------0-000000----0.-| 

Pause, bridge 1:31
[ Tab from: https://www.guitartabs.cc/tabs/b/briggs/dont_care_btab.html ]
G|--------------------------------------------------------------|
D|--------------------------------------------------------------| 
A|-2.2.2.--------2---2.2.2.--------2---2.2.2.--------2---2.2.2.-|
E|-------0-000000----------0-000000----------0-000000-----------|

Chorus 1:42

G|----------------------------------|
D|---------22222222-----------------| 
A|-00002222--------4444222200000000-|
E|----------------------------------|

G|------------------------------------------|
D|---------22222222-------------------------| 
A|-00002222--------4---2-4------------------|
E|-------------------------0-0-0-0-0-0-0-0--|

Verse 1:55

G|-------------------------1-1/666\-|
D|-2-222222-------------------------| 
A|---------444422220-000000---------| x2
E|----------------------------------|

G|----------------------------------|
D|-22222222--------22222222---------| 
A|---------44442222--------44442222-|
E|----------------------------------|

G|----------------------------------|
D|-2222222222222222-----------------| 
A|-------------------------22222222-|
E|-----------------22222222---------|

Chorus 2:17

G|----------------------------------|
D|---------22222222-----------------| 
A|-00002222--------4444222200000000-|
E|----------------------------------|

G|----------------------------------|
D|---------22222222-----------------| 
A|-00002222--------00002222---------|
E|-------------------------00000000-| 

G|----------------------------------|
D|---------22222222-----------------| 
A|-00002222--------4444222200000000-|
E|----------------------------------|

G|----------------------------------|
D|---------22222222-----------------| 
A|-00002222--------0.--2.-----------|
E|-------------------------0~-------|