Briefs - Poor And Weird Chords & Tabs

 

Poor And Weird Chords & Tabs

Briefs Chords & Tabs

Version: 1 Type: Bass Tab

Poor And Weird Bass Tab

The Briefs
Poor and Weird

Chorus 1
G|------------------------|
D|-----------------333333-|
A|-1111111111111111-------|
E|------------------------|

Verse 1
G|------------------------------------|
D|------------------------------------|
A|-1111111111111111-44444444----------|
E|---------------------------44444444-| x2

G|----------------------------------------------------|
D|----------------------------------------------------|
A|-------------------1111111111111111-44444444--------|
E|-22222222-44444444---------------------------444444-|

Chorus 2
G|------------------------|
D|-----------------333333-|
A|-1111111111111111-------|
E|------------------------|

Verse 2
G|------------------------------------|
D|------------------------------------|
A|-1111111111111111-44444444----------|
E|---------------------------44444444-| x2
[ Tab from: https://www.guitartabs.cc/tabs/b/briefs/poor_and_weird_btab.html ]
G|-------------------------------------------------------------|
D|-------------------------------------------------------------|
A|-------------------1111111111111111-44444444--------66666666-|
E|-22222222-44444444---------------------------444444----------|

Bridge
G|-------------|---------------------------|
D|-------------|-33333333-33-3-------------|
A|-66666-------|-------------------------1-|
E|-------66666-|---------1--1-1-11-33-44---|
Iím not too sure about this ending bit^

Verse 3
G|------------------------------------|
D|------------------------------------|
A|-1111111111111111-44444444----------|
E|---------------------------44444444-| x2

G|--------------------------------------------------------|
D|--------------------------------------------------------|
A|-------------------1111111111111111-44444444------------|
E|-22222222-44444444---------------------------444444--6\-|

Outro
G|------------------|----------------|
D|------------------|----------------|
A|-1111111111111111-|-1111111----666-|
E|------------------|--------4444----|

Add my Myspace:
Myspace.com/Jake_bums_sheep_x
I'll add you fer shure and we can bum over the interweb lolz