Brandi Carlile - Happy Chords & Tabs

 

Happy Chords & Tabs

Brandi Carlile Chords & Tabs

Version: 1 Type: Tab

Happy Tab

   
-------------------------------------------------------------------------------
			     Happy - Brandi Carlile
-------------------------------------------------------------------------------

Artist: Brandi Carlile
Song: Happy (album and live)
Album: Brandi Carlile
Tabbed By: heyray (Rachel)
Email: heyray13@hotmail.com

Tuning: Standard

This tab is a combo of the way Brandi and the twins play this song live and the way it
heard on the album. The version are, however, very similar. The only big difference is
second part of the intro riff, I have tabbed it more like how she plays it live now. The 
can also be done a little different live, too. I tried to get it as close to what they
currently playing on the road. Enjoy and check out her music!

Capo 3: All notes relative to Capo

Intro
e|---------------------------------------------------------3----------|
B|-------------3-----------------3---------------3-----------3--------|
G|-----0-----0---0-------0-----0---0-----0-----0---0-----0-----0----0-|
D|---0-----0-----------0-----0---------0-----0-------0h2----------2---|
A|-----------------------------------2-----3--------------------------|
E|-2-----3-----------2-----3------------------------------------------|

e|--------------------------------------------------------------------|
B|-------------3-----------------3---------------3---------3--------3-|
G|-----0-----0---0-------0-----0---0-----0-----0---0-----0--------0---|
D|---0-----0-----------0-----0---------0-----0-------0h2------0h2-----|
A|-----------------------------------2-----3--------------------------|
E|-2-----3-----------2-----3------------------------------------------|


Verses (X4)
I don't hang around that place no more...
e|--------------------------------------------------------------------|
B|-------------3-----------------3---------------3---------3----------|
G|-----0-----0---0-------0-----0---0-----0-----0---0-----0--0---0-----|
D|---0-----0-----------0-----0---------0-----0-------0h2------2---2---|
A|-----------------------------------2-----3--------------------------|
E|-2-----3-----------2-----3------------------------------------------|


Chorus
    Iím happy, canít you seeeeeeee  Iím alright but I miss you Amberlee
    D			 G   Em      D    Cadd9	      D
e|--2--------------------3-----------2-----3----------2---------------|
B|--3--------------------3-----------3-----3----------3---------------|
G|--2--------------------0---0-------2-----0----------2---------------|
D|--0--------------------0---2-------0-----2----------0---------------|
A|--x--------------------2---2-------x-----3----------x---------------|
E|-----------------------3-2-0----------------------------------------|
[ Tab from: https://www.guitartabs.cc/tabs/b/brandi_carlile/happy_tab.html ]
After Chorus Fill:
e|-----------------------------------|
B|-----------------------------------|
G|------0-----0----------------------|
D|----0-----0----0-------------------|
A|--3-----2----0---------------------|
E|-----------------------------------|

Repeat Verse Riff (X5)

Repeat Chorus

Repeat After Chorus Fill

Repeat Verse Riff (Guitar 1 X2)

Solo (guitar 2) During Verse Riff:
e|-----------------------------3--------------------------------------|
B|-------------3------------3---------------3-------------------------|
G|---4p2---2h4---4--4-2-----------4p2---2h4---4--4-2---------5-4------|
D|-------5--------------5-5-----------5--------------5-5ó5s7----------|
A|--------------------------------------------------------------------|
E|--------------------------------------------------------------------|

Bridge
   Where have you been all these years? How could you just disappear?
   Am             Em             C      Am            Em       C
e|--0----------------------------0-------0---------------------0------|
B|--1-------------0--------------1-------1------------0--------1------|
G|--2-------------2--------------0-------2------------2--------0------|
D|--2-------------2--------------2-------2------------2--------2------|
A|--0-------------0--------------3--3-2--0------------0--------3------|
E|--------------------------------------------------------------------|

  And when did you stop, missing me
      Bm           D
e|----2------------2--------------------------------------------------|
B|----3------------3--------------------------------------------------|
G|----4------------2--------------------------------------------------|
D|----4------------0--------------------------------------------------|
A|----2------------x--------------------------------------------------|
E|--------------------------------------------------------------------|

Repeat Verse Riff (X2)

Repeat Chorus

After Chorus Fill II:
		                Iím  alright, but I miss you
				      Em            D
e|--------------------------------------------------2-----------------|
B|--------------------------------------------------3-----------------|
G|------0-----0---------0-----0-------0-------------2-----------------|
D|----0-----0-----0---0-----0-----0---2-------------0-----------------|
A|--3-----2-----0---3-----2-----0-----2-------------------------------|
E|------------------------------------0-------------------------------|

After Chorus Fill III:
			  G
e|------------------------3-------------------------------------------|
B|------------------------3-------------------------------------------|
G|-----0-----0---------0--0-------------------------------------------|
D|---0-----0-----0---0----0-------------------------------------------|
A|-3-----2-----0----------2-------------------------------------------|
E|-----------------2------3-------------------------------------------|