Brandi Carlile - Hallelujah Chords & Tabs

 

Hallelujah Chords & Tabs

Brandi Carlile Chords & Tabs

Version: 1 Type: Tab

Hallelujah Tab

   
-------------------------------------------------------------------------------
			   HALLELUJAH Ė Brandi Carlile
-------------------------------------------------------------------------------
Tabbed by: Steph
Email: cdashber@gmail.com

Standard Tuning

*Note: During the musical interludes (like the intro) play 
         D as x54030 (C=x32010)

Intro (and general pattern):
   G           Em          G           Em          C
e|-------3-----------0-----------3-----------0-----0-0---0-0-----|
B|-------3-----------0-----------3-----------0-----1---1-1---1---|
G|-------0-----------0-----------0-----------0-----0-----0-------|
D|-----0-----------2-----------0-----------2-------2-----2-------|
A|---2-----------2-----------2-----------2---------3-----3-------|
E|-3-------3-2-0-------0-2-3-------3-2-0-------0-2---------------|

         D     G           D
e|-0-0---0-0---3-3---3-3---2-2---2-2------|
B|-1---1-3---3-3---3-3---3-3---3-3---3----|
G|-0-----0-----0-----0-----2-----2--------|
D|-2-----4-----0-----0-----0-----0--------|
A|-3-----5-----2-----2--------------------|
E|-------------3-----3--------------------|


G Em G Em

     G                    Em 
Iíve heard that thereís a secret chord
     G                   Em
That David played and it pleased the Lord
    C                               G      D
But you donít really care for music do ya?

   G                   C           D
It goes like this, the fourth, the fifth
    Em              C
The minor fall, the major lift
    D               Am          Em
The baffled King composing Hallelujah 

      C           Em
Hallelujah, Hallelujah
      C          G D G
Hallelujah, Hallelujah

G Em G Em

          G                        Em
Well your faith was strong but you needed proof
    G               Em
You saw her bathing on the roof
    C                            G      D
Her beauty in the moonlight overthrew ya.
[ Tab from: https://www.guitartabs.cc/tabs/b/brandi_carlile/hallelujah_tab.html ]
    G               C       D
She tied you to her kitchen chair
    Em                         C
She broke your throne, and she cut your hair
    D                  Am            Em
And from your lips she drew the Hallelujah

      C           Em
Hallelujah, Hallelujah
      C          G D G
Hallelujah, Hallelujah

G Em G Em

G                 Em
Darling Iíve been here before
     G                    Em
Iíve seen this room, Iíve walked these floors
           C                                G  D
You know I used to live alone before I knew ya.

     G                     C      D
Iíve seen your flag on the marble arch
Em            C
Love is not a victory march
       D               Am          Em
Itís a cold and itís a broken Hallelujah

      C           Em
Hallelujah, Hallelujah
      C          G D Em
Hallelujah, Hallelujah
   D    G Em G Em C D G D
Oh yeahÖ

G Em G Em

G                         Em
There was a time when you let me know
       G            Em
Whatís really going on below
C                                G     D
But now you never show it to me, do ya?

    G               C        D
And remember when I moved in you
    Em            C
The Holy Dove was moving too
    D                Am             Em  
And every breath you drew was Hallelujah

             C           Em
It was Hallelujah, Hallelujah
      C          Em D G
Hallelujah, Hallelujah

   G               Em
So maybe thereís a God above
    G          Em
But all I ever learned from love
    C                                    G  D
Was how to shoot at somebody who outdrew ya.

     G                  C       D
Itís not a cry that you hear at night
     Em                 C
Itís not somebody whoís seen the light
       D               Am          Em 
Itís a cold and itís a broken Hallelujah
  
      C           Em
Hallelujah, Hallelujah
      C          G D C
Hallelujah, Hallelujah
           G   
Hey, Hallelujah