Brandi Carlile - Fall Apart Again Chords & Tabs

 

Fall Apart Again Chords & Tabs

Brandi Carlile Chords & Tabs

Version: 1 Type: Chords

Fall Apart Again Chords

   
-------------------------------------------------------------------------------
			     Fall Apart Again - Brandi Carlile
-------------------------------------------------------------------------------
Tabbed by: Chris W.
Email: johnhannsmith@gmail.com

Artist: Brandi Carlile
Song: Fall Apart Again
Album: Self-Titled

Tuning: Eb-Ab-Db-Gb-Bb-Eb 
down)

Note: I have the distinct feeling that Brandi Carlile plays this another way, just 
to her guitar progression, but I feel this version mixes the guitar and bass lines well; 
for one performer.  Tell me what you think.

e|---0--------0--------0----------0--------|
B|---0--------0--------0----------0--------|
G|---9--------6--------4----------2--------|
D|---9--------6--------4----------2--------|
A|---7--------4--------2----------0--------|
E|---0--------0--------0----------0--------|
     E5      C#5     Bsus4     Asus2

Intro Riff:
Chord basis (E5-Bsus2 then E5-C#5-Bsus2)

e|---------|----2->-0------)--------|-----4--|----2->-0------|
B|---------|---------------)--------|--------|---------------|
G|----9----|-4----4--------)----9---|--6-----|-4----4--------|
D|----9----|-4----4--------)----9---|--6-----|-4----4--------|
A|-7-------|---------------)-7------|--------|---------------|
E|---------|---------------)--------|--------|---------------|

1st Verse:
E5          Bsus4
Long as the day
E5        Asus2
Take it away
       C#5        Bsus4        Asus2->Bsus4
Hold it up and you donít let it fall

E5            Bsus4
Cause devils play
E5        Asus2
Was yesterday
      C#5        Bsus4        Asus2->Bsus4
And I donít care about that at all
[ Tab from: https://www.guitartabs.cc/tabs/b/brandi_carlile/fall_apart_again_crd.html ]
E5       Bsus4
I just smile
E5        Asus2
Once in awhile
        C#5            Bsus4        Asus2->Bsus4
Cause I donít want the lines on my face
E5            Bsus4
And I sit right here
E5        Asus2
Holding the years
       C#5             Bsus4    Asus2->Bsus4
And I count all of the stars in space


1st Chorus:
E5              C#5
You fall apart again
Bsus4                Asus2
And you canít find a friend
      E5              C#5
Donít turn to someone else
Bsus4              Asus2
Cause they wonít understand


2nd Verse:
E5      Bsus4
Self respect
E5        Asus2
Goes unexpressed
         C#5          Bsus4   Asus2->Bsus4
I donít dream cause I cannot sleep

E5      Bsus4
And I think
E5        Asus2
The world of myself
        C#5           Bsus4        Asus2->Bsus4
But the world doesnít think much of me

E5            Bsus4
As long as the day
E5        Asus2
Is full of time
C#5                  Bsus4
There will always be room
      Asus2->Bsus4
For your hand in mine

Main Chorus:
E5              C#5
You fall apart again
Bsus4                 Asus2
And you canít find a friend
E5                    C#5
Donít turn to someone else
Bsus4               Asus2
Cause they wonít understand
   E5                 C#5
Donít wanna hear you say
Bsus4           Asus2
That tune is yesterday
E5                    C#5
If you donít like what you see
Bsus4               Asus2
That means nothing to me

Solo:
Repeat Intro Riff three times
(then progress up, on high e string, relative to capo: F#, G#, Bb, B)


Final Verse:
E5        Bsus4
No oneís home
E5   Asus2
Iím alone
        C#5   Bsus4  Asus2->Bsus4
With my music and my TV
E5            Bsus4
And Iíll still say
E5    Asus2
Yesterday
    C#5      Bsus4   Asus2->Bsus4
Is best when left to sleep

Repeat Chorus
Repeat Intro Riff (end on Asus2)