Bowling For Soup - Punk Rock 101 Chords & Tabs

 

Punk Rock 101 Chords & Tabs

Bowling For Soup Chords & Tabs

Version: 2 Type: Bass Tab

Punk Rock 101 Bass Tab

Intro/Outro:
G ----------------------------------------------------------------|
D ----------------------------------------------------------------|
A ------------2*-------------2*-----------------------------------|
E --5-5-5-4-4------5-5-5-4-4--------------------------------------|

Rest of Intro/Verse (played with a shuffle):
G -----------------------------------------}-----------------------|
D -----------------------------------------}-----------------------|
A ---------------------0-0-0-0-0-0-0-0-0-0-}--0*(at end of verse)--|
E -0-0-0-0-0-2-2-2-2-2---------------------}-----------------------|
[ Tab from: https://www.guitartabs.cc/tabs/b/bowling_for_soup/punk_rock_101_btab_ver_2.html ]
Chorus (played with a shuffle):
G -----------------------------------------------------------------|
D -----------------------------------------------------------------|
A ---------------------0-0-0-0-0-0-0-0-0-0-(there are a few mutes--|
E -0-0-0-0-0-2-2-2-2-2---------------------------------------------|every once in a while)

Interlude:
G ------------------------------------------------------------------|
D --------------------------2*----------2*--------------------------|
A ------------------------------2*-0*-------2*-0*-------------------|
E (00-12\-00)x3-0000---------------0*-----------00000-------------|