Bob Marley - Rebel Music Chords & Tabs

 

Rebel Music Chords & Tabs

Bob Marley Chords & Tabs

Version: 1 Type: Bass Tab

Rebel Music Bass Tab

Rebel Music live in London
By Bob Marley and The Wailers

i was looking around and saw that nobody had tabed the bass line on this song and i was
so i made one =D

(this is also my first tab so if you see anything wrong let me know. thanks.)

Listen to the song to figure out the timing its not that hard

Intro:
G-------------------------------------------------------------------------------------------------------------------------------|
D-----------------------------------7------------------------------------------------7------------------------------------------|
A---4-----7--9------4---7--9----------5~~---------4-----7--9------4---7--9--------7~~-------------------------------------------|
E-------------------------------------------------------------------------------------------------------------------------------|

Main Verse:
G-------------------------------------------------------------------------------------------------------------------------------|
D-------------------------------------------------------------------------------------------------------------------------------|
A---4-----7--9------4---7--9------555---4444-------------4-----7--9------4---7--9----4---7--9----555----5555--------------------|
E-------------------------------------------------------------------------------------------------------------------------------|

G-------------------------------------------------------------------------------------------------------------------------------|
D-------------------------------------------------------------------------------------------------------------------------------|
A---4-----7--9------4---7--9------5--4444------------------4-----7--9------4---7--9----4---7--9----5-------5555-----------------|
E-------------------------------------------------------------------------------------------------------------------------------|
[ Tab from: https://www.guitartabs.cc/tabs/b/bob_marley/rebel_music_btab.html ]
Alternate Verse x2:
G-------------------------------------------------------------------------------------------------------------------------------|
D-------------------------------------------------------------------------------------------------------------------------------|
A---4-----7--9------4---7--9-----3-----5---5------------------4-----7--9------4---7--9----4---7--9----5---5555------------------|
E-------------------------------------------------------------------------------------------------------------------------------|

After 1st Break:
G----------------------------------|
D----------------7-----------------|
A-----4---7-----------5~~----------|
E----------------------------------|

Solo:
G-------------------------------------------------------------------------------------------------------------------------------|
D-------------------------------------------------------------------------------------------------------------------------------|
A---4-----7--9------4---7--9-----3-----5---5------------------4-----7--9------4---7--9----4---7--9----5---5555------------------|
E-------------------------------------------------------------------------------------------------------------------------------|

After Solo:
G---------------------------------|
D----------------7----------------|
A-----4---7-----------5~~---------|
E---------------------------------|

Outro:

G-------------------------------------------------------------------------------------------------------------------------------|
D-------------------------------------------------------------------------------------------------------------------------------|
A---4-----7--9------4---7--9------5--5555------------------4-----7--9------4---7--9----4---7--9----5-------5555-----------------|
E-------------------------------------------------------------------------------------------------------------------------------|

G-------------------------------------------------------------------------------------------------------------------------------|
D-----------------------------------7------------------------------------------------7------------------------------------------|
A---4-----7--9------4---7--9----------5~~---------4-----7--9------4---7--9--------7~~-------------------------------------------|
E-------------------------------------------------------------------------------------------------------------------------------|

G---------------------------------|
D---------------------------------|
A-----4---7------9~~--------------|
E---------------------------------|


And thatís basically it, with a few variations here and there.