Blue October - Let It Go Chords & Tabs

 

Let It Go Chords & Tabs

Blue October Chords & Tabs

Version: 3 Type: Tab

Let It Go Tab

   
Song: Let it Go
Artist: Blue October
Album: Foiled

Tuning: standard

these r the basic notes of the song, ull notice theres a little different rythem 2 the
and alot of tiny little notes added in, it would b impossible 2 write all these but u can
them out pretty easy while just playing on the cords that r being played.


intro
e|---------------------------------|
B|---------------------------------|
G|----554-4-24h5p4-2-0---5-7-7h9---|
D|---------------------3-----------| 3 times
A|--0------------------------------|
E|---------------------------------|


verse 1
e|--------------------------------------------------|
B|--------------------------------------------------|
G|---5----------10----5----------5---5----10----5---|
D|--5-5-puase-10--10-5-5-pause--5-5-5-5-10--10-5-5--|
A|-3---3-----8------3----------3---3---8------3-----|
E|--------------------------------------------------|


chorus 1
e|----------------------------------------------------------------|
B|----------------------------------------------------------------|
G|---2----10----5-----------2----10----------5555-5-------5555-5--|
D|--2-2-10--10-5-5--pause--2-2-10--10--pause-3333-5-pause-3333-5--|
A|-0---8------3---3-------0---8------3------------3------------3--|
E|----------------------------------------------------------------|

[ Tab from: https://www.guitartabs.cc/tabs/b/blue_october/let_it_go_tab_ver_3.html ]
interlude 1
e|-------------------------|
B|-------------------------|
G|--555---2----10-----5----|
D|--555--2-2-10--10--5-5---|
A|------0---8------73---3--|
E|-------------------------|


verse 2
e|---------------------------------------------|
B|---------------------------------------------|
G|---5---5----10----5---5---5---5----10----5---|
D|--5-5-5-5-10--10-5-5-5-5-5-5-5-5-10--10-5-5--|
A|-3---3---8------3---3---3---3---8------3-----|
E|---------------------------------------------|


 chorus 2                        12
e|-------------------------------|----|--|
B|-------------------------------|----|--|
G|---2----10----5---5---2----10--|--5-|--|
D|--2-2-10--10-5-5-5-5-2-2-10--10|-5-5|--| 2 times
A|-0---8------3---3---0---8------|3---|3~|
E|-------------------------------|----|--|

e|----------------------|
B|----------------------|
G|-5555-5-------5555-5--|
D|-3333-5-pause-3333-5--|
A|------3------------3--|
E|----------------------|


interlude 2       1-78
e|-----|------------|--------|--|
B|-----|------------|--------|--|
G|-555-|---2----10--|--------|--|
D|-555-|--2-2-10--10|---32320|--| 8 times
A|-----|-0---8------|3-------|3~|
E|-----|------------|--------|--|


ending
e|----------------------------------|
B|----------------------------------|
G|-5555-5-------5555-5-------5555-5-|
D|-3333-5-pause-3333-5-pause-3333-5-|
A|------3------------3------------3-|
E|----------------------------------|

let me kno how you like it. twitch8888@hotmail.com