Blue Merle - Places Chords & Tabs

 

Places Chords & Tabs

Blue Merle Chords & Tabs

Version: 1 Type: Tab

Places Tab

----------------------------------------------------------------------------
			     Places - Blue Merle
----------------------------------------------------------------------------
Tabbed by: Derek Valukis
Email: dvalukis@mail.usf.edu

Tuning: Standard



Intro

e|---------------------------------------------------0--------------------|
B|-----3-------3-------3-------3-------3-------3-------3------------------|
G|---0---0---0---0---0---0---0---0---0---0---0---0-------0----------------|
D|------------------------------------------------------------------------|
A|-2----------------------------------------------------------------------|
E|---------3-------2-------3-------3-------3-------3----------------------|

e|-------------------------------------------0----------------------------|
B|-----3-------3-------3-------3-------3-------3--------------------------|
G|---2---2---2---2---2---2---2---2---2---2-------2------------------------|
D|-0-------0-------0-------0-------0-------0-------0>>>>------------------|
A|------------------------------------------------------------------------|
E|------------------------------------------------------------------------|



Verses

Lucas Reynolds individually picks the strings. Just take a listen.


...looks like      taste in       kiss me again      airports ain't nothin
   
e|------------------------------------------------------------------------|
B|-3---3---3-------3---3---3------3---3---3---3------3---3---3---3--------|
G|-0---0---2-------0---2---2------0---0---0---0------2---2---2---0--------|
D|-x---0---0-------0---0---0------0---0---0---0------0---x---0---0--------|
A|-2---x-----------x--------------x---x---x---x----------0-------x--------|
E|-----3-----------3--------------3---2---3---3------------------3--------|

   they ain't nothin, but places to 
[ Tab from: https://www.guitartabs.cc/tabs/b/blue_merle/places_tab.html ]
e|------------------------------------------------------------------------|
B|-3---3---3--------------------------------------------------------------|
G|-0---0---2--------------------------------------------------------------|
D|-x---x---0--------------------------------------------------------------|
A|-2---0------------------------------------------------------------------|
E|------------------------------------------------------------------------|




Chorus                                                On End of 2nd Chorus

e|---------0--------------0---0----------0--------------------------------|
B|-3---3---0------3---3---0---2------3---3--------------------3---3-------|
G|-2---0---0------2---0---0---2------0---2--------------------0---0-------|
D|-0---0---2------0---0---2---2------0---0--------------------2---0-------|
A|-x---2---2------x---2---2---0------2------------------------3---2-------|
E|-2---3---0------2---3---0----------3----------------------------3-------|


The instrumental is just the chorus played twice. 

| x  Mute note


Lyrics

Well, it looks like theyíre running on time
And you can taste in my tears that I love you
So kiss me again and then tell me goodbye
Cause airports ainít nothing but places you cry
They ainít nothing but places to cry

And this bartender is selling a lie
That all of these travelers are buying
Cause everyoneís looking for something to find
But bars, they ainít nothing but places you hide
They ainít nothing but places to hide

Places do nothing but take me away from your side
Now Iím stuck in this airport and trying to get back
To the place that you helped me to find
Cause airports are places
I am when I am not by your side

This city is covered in lights
And everyoneís out for the evening
But no one here cares if youíre dead or alive
I guess cities ainít nothing but places to fly
They ainít nothing but places to fly

Places do nothing but take me away from your side
Now I am stuck in this city and trying to get back
To the place that you helped me to find
Cause cities are places I am when I am not by your side
Yeah, places are places I am when I am not where you are

Well I dreamt that I held you tonight
We made love in an ocean of color
But when I awoke, you were nowhere in sight
I guess dreams they ainít nothing but places inside
They ainít nothing but places inside

And places do nothing but take me AWAY from your side
And all that I want is to try and get back
To the place that you helped me to find
And back to the place that I belong
Which is right by your side




Email dvalukis@mail.usf.edu for questions/comments/corrections.
===========================================================================