Blood Brothers - Trash Flavored Trash Chords & Tabs

 

Trash Flavored Trash Chords & Tabs

Blood Brothers Chords & Tabs

Version: 2 Type: Tab

Trash Flavored Trash Tab

----------------------------------------------------------------------------
	   	Trash Flavored Trash  The Blood Brothers
----------------------------------------------------------------------------
Tabbed by: max
Tuning: Standard
Distortion 
Rhythm? Not really
First tab, plz rate

Intro:
e|-------------------------------------------------------------------------|
B|-------------------------------------------------------------------------|
G|-------------------------------------------------------------------------|
D|----8-8-8-8--12-12-12-12--5--55-55-55--5---------------------------------|
A|----8-8-8-8--12-12-12-12--5--55-55-55--5-slide up the neck quickly after-|
E|----6-6-6-6--10-10-10-10--3--33-33-33--3---------------------------------|

Verse 1:
e|-------------------------------------------------------------------------|
B|-------------------------------------------------------------------------|
G|--------------------------8----8----8----8-------------------------------|
D|-----------------------10-8-10-8-10-8-10-8---------------------5---------|
A|-----------------------10-8-10-8-10-8-10-8---------------------5---------|
E|----66666665X8--------10---10---10---10---------66666665X8---3---------|
[ Tab from: https://www.guitartabs.cc/tabs/b/blood_brothers/trash_flavored_trash_tab_ver_2.html ]
                         ^^Verse Interlude^^
Chorus:
e|-------------------------------------------------------------------------|
B|-------------------------------------------------------------------------|
G|-------------------------------------------------------------------------|
D|----8-8-8-8--12-12-12-12-------------------------------------------------|
A|----8-8-8-8--12-12-12-12-------------------------------------------------|
E|----6-6-6-6--10-10-10-10--33333332-3333333-------------------------------|
	X2
e|-------------------------------------------------------------------------|
B|-------------------------------------------------------------------------|
G|-------------------------------------------------------------------------|
D|----8-8-8-8--12-12-12-12-------------------------------------------------|
A|----8-8-8-8--12-12-12-12-------------------------------------------------|
E|----6-6-6-6--10-10-10-10--33333332-33333---------------------------------|

Verse 2:
e|-------------------------------------------------------------------------|
B|-------------------------------------------------------12h14--14--14-----|
G|------------------12h14-------------------------10h12--------------------|
D|-----------10h12---------3h5p3h5---X3----10h12---------------------------|
A|----10h12----------------------------------------------------------------|
E|-------------------------------------------------------------------------|

e|-------------------------------------------------------------------------|
B|-------------------------------------------------------------------------|
G|------------------12h14--------------------------------------------------|
D|-----------10h12---------3h5p3h5---X2------FEEDBACK/Noise + Bass---------|
A|----10h12----------------------------------------------------------------|
E|-------------------------------------------------------------------------|

The feedback and the weird background noise part goes on for about 4 whole rests altogether.

-Verse, without the verse interlude
-Chorus +
e|----------|
B|----9-----|
G|----x-----|after holding for about 2 beats after the chorus, quickly    
D|----7-----|slide up the neck.
A|----------|
E|----------|

------about 3 or 4 whole rests------

End:
e|-------------------------------------------------------------------------|
B|-------------------------------------------------------------------------|
G|-------------------------------------------------------------------------|
D|-------------------------------------------------------------------------|
A|-------------------------------------------------------------------------|
E|----66-33-55-5-3456---X4-------------------------------------------------|