Bloc Party - On Chords & Tabs

 

On Chords & Tabs

Bloc Party Chords & Tabs

Version: 1 Type: Tab

On Tab

   
VERSE 0.00  1.14
Guitar 1  Continuously through Verse
E|---|
B|---|
G|-5-|
D|-5-|
A|-3-|
E|---|

Guitar 2
0.50  1.02
e|-7h8-|
B|-----|
G|-----|
D|-----|
A|-----|
E|-----|

1.02  1.14
e|---7h8-|
B|-8-----|
G|-------|
D|-------|
A|-------|
E|-------|


CHORUS 1.14  1.37
e|------------------------------------|
B|-1~--------------------1~-----------|
G|-2~---2~---5~---5~-----2~---2~---5~-|
D|-2~---3~---5~---5~-----2~---3~---5~-|
A|-0~---3~---3~---3~-----0~---3~---3~-|
E|------1~--------------------1~------|

e|---------------------------------------------|
B|-1~--------------------1~--------------------|
G|-2~---2~---5~---5~-----2~---2~---5~---5~-----|
D|-2~---3~---5~---5~-----2~---3~---5~---5~-----|
A|-0~---3~---3~---3~-----0~---3~---3~---3~-----|
E|------1~--------------------1~---------------|

Guitar 2 (listen for timing)
e|-8-|
B|---|
G|---|
D|---|
A|---|
E|---|

VERSE 2 1.38 - 2.30
Guitar 1  Continuously through Verse
E|---|
B|---|
G|-5-|
D|-5-|
A|-3-|
E|---|
[ Tab from: https://www.guitartabs.cc/tabs/b/bloc_party/on_tab.html ]
Guitar 2
e|-8-7-|
B|-----|
G|-----|
D|-----|
A|-----|
E|-----|

Chorus 2  2.30  3.15
x3
e|------------------------------------|
B|-1~--------------------1~-----------|
G|-2~---2~---5~---5~-----2~---2~---5~-|
D|-2~---3~---5~---5~-----2~---3~---5~-|
A|-0~---3~---3~---3~-----0~---3~---3~-|
E|------1~--------------------1~------|

e|---------------------------------------------|
B|-1~--------------------1~--------------------|
G|-2~---2~---5~---5~-----2~---2~---5~---5~-----|
D|-2~---3~---5~---5~-----2~---3~---5~---5~-----|
A|-0~---3~---3~---3~-----0~---3~---3~---3~-----|
E|------1~--------------------1~---------------|

Guitar 2 (listen for timing)
e|-8-|
B|---|
G|---|
D|---|
A|---|
E|---|

3.15  3.40
e|-------------------|
B|-------------------|
G|-00000000-22222222-|
D|-------------------|
A|-------------------|
E|-------------------|

e|-----------|
B|-----------|
G|-0~---2~---|
D|-----------|
A|-----------|
E|-----------|

 Repeat Chorus 2

OUTRO
Guitar 1  Continuously 
E|---|
B|---|
G|-5-|
D|-5-|
A|-3-|
E|---|