Blink 182 - Boxing Day Chords & Tabs

 

Boxing Day Chords & Tabs

Blink 182 Chords & Tabs

Version: 2 Type: Bass Tab

Boxing Day Bass Tab

Boxing Day
Album: Dogs Eating Dogs EP
Artist: Blink-182
Tabbed by: Harrison Thompson
Tuning: Standard (EADG)

Key:
~ Hold Note

Great song, the bass sounds amazing, this is the closest tab so far, I'm pretty
sure it's accurate.


Intro don't play


Verse x8
G----------------------------------------------
D----------------------------------------------
A------------------------3-3-3-3--3-3----------
E-3------2--5--0------3------------------------


Build Up
G----------------------------------------------------------------
D----------------------------------------------------------------
A---------------------------------5--5-5-5-5-5-5--5--5-5-5-5-5-5-
E-3--3-3-3-3-3-3--3--3-3-3-3-3-3---------------------------------

G----------------------------------------------------------------
D----------------------------------------------------------------
A---------------------------------5--5-5-5-5-5-5--5--5-5-5-5-5-5-
E-0--0-0-0-0-0-0--0--0-0-0-0-0-0---------------------------------

G----------------------------------------------------------------
D----------------------------------------------------------------
A---------------------------------5--5-5-5-5-5-5--5--5-5-5-5-5-5-
E-3--3-3-3-3-3-3--3--3-3-3-3-3-3---------------------------------

G----------------------------------------------------------------
D----------------------------------------------------------------
A----------------------------------------------------------------
E-0--0-0-0-0-0-0--0--0-0-0-0-0-0---------------------------------


Chorus x2
G--------------------------------------------------------
D--------------------------------------------------------
A---------------------------2-3--3-3-3-3--3-3--3-3-3-3-2-
E-3--3-3-3-3--3-3--3-3-3-3-------------------------------
[ Tab from: https://www.guitartabs.cc/tabs/b/blink_182/boxing_day_btab_ver_2.html ]
G--------------------------------------------------------
D--------------------------------------------------------
A---------------------------2-3--3-3-3-3--3-5-3-2-0------
E-0--0-0-0-0--0-0--0-0-0-0-------------------------------

Play at the end of chorus
G----
D----
A----
E-3~-


Instrumental
G----
D----
A----
E-3~-


Verse x4
G----------------------------------------------
D----------------------------------------------
A------------------------3-3-3-3--3-3----------
E-3------2--5--0------3------------------------


Build Up - Don't Play


Chorus x2
G--------------------------------------------------------
D--------------------------------------------------------
A---------------------------2-3--3-3-3-3--3-3--3-3-3-3-2-
E-3--3-3-3-3--3-3--3-3-3-3-------------------------------

G--------------------------------------------------------
D--------------------------------------------------------
A--------------------------2-3--3-3-3-3--3-5-3-2-0-------
E-0--0-0-0-0--0-0--0-0-0-0-------------------------------


Instrumental x4
G-----------------------------------------------------
G-----------------------------------------------------
D-----------------------------------------------------
A------------------------3-3-3-3--3-3-----------------
E-3------2--5--0------3-------------------------------


Don't Play "I'm empty like the day..."


Chorus x2
G--------------------------------------------------------
D--------------------------------------------------------
A---------------------------2-3--3-3-3-3--3-3--3-3-3-3-2-
E-3--3-3-3-3--3-3--3-3-3-3-------------------------------

G--------------------------------------------------------
D--------------------------------------------------------
A--------------------------2-3--3-3-3-3--3-5-3-2-0-------
E-0--0-0-0-0--0-0--0-0-0-0-------------------------------

End Note
G----
D----
A----
E-3~-