Black Rebel Motorcycle Club - Restless Sinner Chords & Tabs

 

Restless Sinner Chords & Tabs

Black Rebel Motorcycle Club Chords & Tabs

Version: 1 Type: Tab

Restless Sinner Tab

   
-------------------------------------------------------------------------------
		    RESTLESS SINNER  Black Rebel Motorcycle Club
-------------------------------------------------------------------------------
Tabbed by: Gerard Cordwell
Email:

Tuning: D A D G B E

INTRO RIFF AND VERSE PARTS

e|---------------------------------------------------------------------------|
B|---------------------------------------------------------------------------|
G|------7-5-7-6--------------------------------------------------------------|
D|--------------5-----------------------------2------------------------------|
A|------------------------0h2-2-2h3-3-----------3---------0h2-2-2h3-3--------|
D|-0----------------0---0--------------0----0-------0---0--------------------|
                    ^	 ^
                 let ring           let ring
[ Tab from: https://www.guitartabs.cc/tabs/b/black_rebel_motorcycle_club/restless_sinner_tab.html ]
e|---------------------------------------------------------------------------|
B|---------------------------------------------------------------------------|
G|----------7-5-7------------------------------------------------------------|
D|----------------5(slight bend)------------------5/7-7-7-5/7-7--/2----------|
A|-------------------------0h2-2-2h3-3------------------------------3--------|
D|-0-----------------0---0--------------0----0------------------------2~-0---|
   ^                 ^		  ^	^
let ring	  let ring           let ring                         let ring

e|---------------------------------------------------------------------------|
B|---------------------------------------------------------------------------|
G|---------------------------------------------------------------------------|
D|------------------------2--------------------------------------------------|
A|---0h2-2-2h3-3------------3-----------0h2-2-2h3-3--------------------------|
D|-0--------------0-----0-------0----0---------------------------------------|
                  ^             ^
               let ring      let ring


| /  slide up
| \  slide down
| h  hammer-on
| p  pull-off
| ~  vibrato
| +  harmonic
| x  Mute note
| B  Bend
===============================================================================