Billy Talent - Devil In A Midnight Mass Chords & Tabs

 

Devil In A Midnight Mass Chords & Tabs

Billy Talent Chords & Tabs

Version: 4 Type: Bass Tab

Devil In A Midnight Mass Bass Tab


-------------------------------------------|
-------------------------------------------|
0-------0-3--------------------------------|
--5-3-5------0-0-0-0-0-0-0-0-0-0-0-0-0-0-0-|

-------------------------------|
-------------------------------|
-------5------8-5-7ó0-0-0-0----|
-5-7-8---8-7-------------------|x3

------------------|
------------------|   1iŤre fois : A devil in a midnight mass
0-------0-3-------|   2iŤme fois : he prayed behind stained glass
--5-3-5-----0-0-0-|x4 3iŤme fois : a memory of Sunday class
                     4iŤme fois : Resurrected from the past

------------|
------------|
0-------0-3-|
--5-3-5-----|

hold your breath  and count to four
-------------------------------------------------------------|
-------------------------------------------------------------|
-----------------------------------------------8-5-7-0-----3-|
8(blanche)-----7(blanche)-------0-0-8-0-0-7 -----------5-7---|

Pinky swears don't work no more
-------------------------------------------------------------|
-------------------------------------------------------------|
-----------------------------------------------8-5-7-0-----3-|
8(blanche)---7(blanche)-------0-0-8-0-0-7 -------------5-7---|

Footsteps down the hallway floor getting closer to my door I was alive, but now I'm singing...

-------------------------------------------------------------|
-------------------------------------------------------------|
-------------------------------------------------------------|
8------------7--------0---------3------8--------7------------|


                             (Silent  night) for the rest of my life (silent night) for 
rest of my life

-------------------------------------------------------------|
-------------------------------------------------------------|
0-------0-3--------------------------------------------------|
--5-3-5-----0-0-0-0-0-0-0-0-0-0-0-0-0-3-3-3-3-3-3-3-3-3-3-3--|

(Violent knight) till at the edge of your knife (forgive me father) don't make it right

--------------------------------------------------------|
--------------------------------------------------------|
--------------------------------------------------------|
5-5-5-5-5-5-5-5-5-5-5-5-5-5-5-8-8-8-8-8-8-8-8-7-7-7-7-7-|


                             (Silent  night) for the rest of my life (silent night) at 
edge of your knife

--------------------------------------------------------------|
--------------------------------------------------------------|
0-------0-3---------------------------------------------------|
--5-3-5-----0-0-0-0-0-0-0-0-0-0-0-0-0-3-3-3-3-3-3-3-3-3-3-3-3-|


YOUíRE GUILTY!


------------------------------------|
------------------------------------|
------------------------------------|
8-8-8-7-7-7-5-5-5-3-3-3-7-7-7-7-7-7-|


---------------------------------------------------------------|
---------------------------------------------------------------|
0-------0-3-------------8-5-7-0-0-0-------5------8-5-7-0-0-----|
--5-3-5-----0-0-8-0-0-7-------------5-7-8---8-7----------------|


------------------|
------------------|     1iŤre fois : a devil in a midnight mass
0-------0-3-------|     2iŤme fois : kill the boy inside the man
--5-3-5-----0-0-0-|x4   3iŤme fois : the holy water in his hands
                       4iŤme fois : Can never wash away his sins

------------|
------------|
0-------0-3-|
--5-3-5-----|

hold your breath  and count to four
-------------------------------------------------------------|
-------------------------------------------------------------|
-----------------------------------------------8-5-7-0-----3-|
8(blanche)-----7(blanche)-------0-0-8-0-0-7 -----------5-7---|
[ Tab from: https://www.guitartabs.cc/tabs/b/billy_talent/devil_in_a_midnight_mass_btab_ver_4.html ]
Pinky swears don't work no more
-------------------------------------------------------------|
-------------------------------------------------------------|
-----------------------------------------------8-5-7-0-----3-|
8(blanche)--------7(blanche)-------0-0-8-0-0-7 --------5-7---|

Put my trust in God that day Not the man that taught his way I was alive but now Iím singing

-------------------------------------------------------------|
-------------------------------------------------------------|
-------------------------------------------------------------|
8------------7--------0---------3--------8----------7--------|

                             (Silent  night) for the rest of my life (silent night) for 
rest of my life

-------------------------------------------------------------|
-------------------------------------------------------------|
0-------0-3--------------------------------------------------|
--5-3-5-----0-0-0-0-0-0-0-0-0-0-0-0-0-3-3-3-3-3-3-3-3-3-3-3--|

Violent knight till at the edge of your knife (forgive me father) don't make it right

--------------------------------------------------------|
--------------------------------------------------------|
--------------------------------------------------------|
5-5-5-5-5-5-5-5-5-5-5-5-5-5-5-8-8-8-8-8-8-8-8-7-7-7-7-7-|


                             (Silent  night) for the rest of my life (silent night) at 
edge of your knife

--------------------------------------------------------------|
--------------------------------------------------------------|
0-------0-3---------------------------------------------------|
--5-3-5-----0-0-0-0-0-0-0-0-0-0-0-0-0-3-3-3-3-3-3-3-3-3-3-3-3-|


YOUíRE GUILTY!


------------------------------------|
------------------------------------|
------------------------------------|
8-8-8-7-7-7-5-5-5-3-3-3-7-7-7-7-7-7-|

----------------------------------------------------------------|
-(courte avant de jouer)----------------------------------------|
----------------------------------------------------------------|
-------------------------------0-0-0-0-0-0-0-0-0-0-0-0-0-0-0-0--|

(whisper) Whisper, whisper donít make a sound Your bed is made; itís in the ground

----------------------------------------------------------|
----------------------------------------------------------|
----------------------------------------------------------|
--0-0-0-0-0-0-0-0-0-0-0-0-0-0-0-0-0-0-0-0-0-0-0-0-0-0-0-0-| x2

(Screaming)  Whisper, whisper donít make a sound Your bed is made; itís in the ground

-----------------------------------------------------------|
-----------------------------------------------------------|
-----------------------------------------------------------|
---------0-0-0-0-0-0-0-0-0-0-0-0-0-3-3-3-3-3-3-3-3-3-3-3-3-|

(Screaming)  Whisper, whisper donít make a sound Your bed is made; itís in the ground

-----------------------------------------------------------|
-----------------------------------------------------------|
-----------------------------------------------------------|
--------5-5-5-5-5-5-5-5-5-5-5-5-5-5-8-8-8-8-8-7-7-7-7-7-7--|

(Screaming)  Whisper, whisper donít make a sound Your bed is made; itís in the ground


------------------------------------------------------------|
------------------------------------------------------------|
0-------0-3-------------------------------------------------|
--5-3-5-----0-0-0-0-0-0-0-0-0-0-0-3-3-3-3-3-3-3-3-3-3-3-3-3-|

(Screaming)  Whisper, whisper donít make a sound Your bed is made; itís in the ground


-----------------------------------------------------------|
-----------------------------------------------------------|
-----------------------------------------------------------|
--------5-5-5-5-5-5-5-5-5-5-5-5-5-5-8-8-8-8-8-7-7-7-7-7-7--|

--------------|
--------------|
0-------0-3---|
--5-3-5-----0-|