Billy Talent - Devil In A Midnight Mass Chords & Tabs

 

Devil In A Midnight Mass Chords & Tabs

Billy Talent Chords & Tabs

Version: 3 Type: Bass Tab

Devil In A Midnight Mass Bass Tab

-------------------------------------------------------------------------------
		DEVIL IN A MIGNIGHT MASS Ė Billy Talent
-------------------------------------------------------------------------------

Tabbed By: Barry Miles
e-mail: shoebox_of_lies@hotmail.com

Tuning: Drop D (DADG)

Intro (Come in at 0:05)
 |             |                               x4|
G|-------------|---------------------------------|
D|-------------|---------------------------------|
A|-------------|-5-----------8---7---------------|
D|-7-3-0-5-7-8-|---0-8-0-7-0---0---0-7-3-0-5-7-8-|

Verse
 |                        x4|
G|--------------------------|
D|--------------------------|
A|--------------------------|
D|-0--0-0--0-0--7-3-0-5-7-8-|
  1. A Devil in a Midnight Mass
  2. He prayed behind stained glass
  3. A memory of Sunday class
  4. Resurrected from the past

Prechorus
 |                                         x2|
G|-------------------------------------------|
D|-------------------------------------------|
A|-----------------------8---7-------------3-|
D|-8-----7----0--8-0-7-0---0---0-7-3-0-5-7---|
  1. Hold your breath and count to four
  2. Pinky swears donít work no more

G|---------------------------------------------------|
D|---------------------------------------------------|
A|---------------------------------------------------|
D|-8-----7----0-----3------8------7------7-3-0-5-7-8-|
  1. Footsteps down my hallway floor, getting closer to my door
     I was alive, but now Iím singing
[ Tab from: https://www.guitartabs.cc/tabs/b/billy_talent/devil_in_a_midnight_mass_btab_ver_3.html ]
Chorus
G|-----------------------------------------------------|
D|-----------------------------------------------------|
A|-----------------------------------------------------|
D|-0---0--0--0---0--0--0-0-0-3---3--3--3---3--3--3-3-3-|
  1. Silent night for the rest of my life, Silent night for the rest of my life

G|-------------------------------------------------------|
D|-------------------------------------------------------|
A|-------------------------------------------------------|
D|-5---5--5--5---5--5--5-5-5-8---8--8--8--7--7-3-0-5-7-8-|
  1. Silent night at the edge of your knife, (Guilty Guilty) wonít make it right

G|-----------------------------------------------------|
D|-----------------------------------------------------|
A|-----------------------------------------------------|
D|-0---0--0--0---0--0--0-0-0-3---3--3--3---3--3--3-3-3-|
  1. Silent night for the rest of my life, Silent night at the edge of your knife

G|---------------------------------------------------|
D|---------------------------------------------------|
A|---------------------------------------------------|
D|-8--8---7--7---5--5---3--3----7-7-7-7-7-7-7-7-7-7--|
  1. (Youíre Guilty)

Preverse:
 |                               x2|
G|---------------------------------|
D|---------------------------------|
A|-5-----------8---7---------------|
D|---0-8-0-7-0---0---0-7-3-0-5-7-8-|

Order:
Intro
Verse
Prechorus
Chorus
Preverse
Verse
Prechorus
Chorus
(Long pause during whispering)
Preverse (x4)

Additional Lyrics:
Verse 2
A Devil in a Midnight Mass
Killed the boy inside the man
The holy water in his hands
Can never wash away his sins

Prechorus 2
Hold you breathe and count to 4
Pinky swears donít work no more
Put my trust in God that day
Not the man who taught his way
I was alive, but now Iím singing

Bridge:
Whisper, donít make a sound
Your bed is made, and itís in the ground

===============================================================================