Billy Ocean - Red Light Spells Danger Chords & Tabs

 

Red Light Spells Danger Chords & Tabs

Billy Ocean Chords & Tabs

Version: 2 Type: Bass Tab

Red Light Spells Danger Bass Tab

Tabbed by:- vampirepeaches

Artist:- Billy Ocean
Song:- Red Light Spells Danger
First tab, lots of effort went into it, after being unable to find an accurate
one, or even a free midi. Note that each "-" equals one quaver.

Intro - x5 until 0.59
G|----------------------------------------------------------------|
D|----------------------------------------------------------------|
A|--------------------------------77-777-777-777-7----------------|
E|99-999-999-999-9554555-555-55545----------------77-777-777-77788|

Bridge - x2 until 1.11
G|--------------------------------|
D|--------------------------------|
A|--447744--447744--669966--669966|
E|55------55------77------77------|
[ Tab from: https://www.guitartabs.cc/tabs/b/billy_ocean/red_light_spells_danger_btab_ver_2.html ]
Chorus - x2 until 1.34
G|----------------------------------------------------------------|
D|----------------------------------------------------------------|
A|7-77-77-77-7----------------77-777-777-777-7----------------|
E|----------------5-55-55-55-45----------------77-777-777-77788|

Interlude - x5 until 2.31
G|----------------------------------------------------------------|
D|----------------------------------------------------------------|
A|--------------------------------77-777-777-777-7----------------|
E|99-999-999-999-955-555-555-55545----------------77-777-777-77788|

Bridge - x2 until 2.43
G|--------------------------------|
D|--------------------------------|
A|--447744--447744--669966--669966|
E|55------55------77------77------|

Chorus - x4, then fade out to end
G|----------------------------------------------------------------|
D|----------------------------------------------------------------|
A|7-77-77-77-7----------------77-777-777-777-7----------------|
E|----------------5-55-55-55-45----------------77-777-777-77788|