Berlin - Metro Chords & Tabs

 

Metro Chords & Tabs

Berlin Chords & Tabs

Version: 1 Type: Bass Tab

Metro Bass Tab

   
Intro

G:------------------------------|
D:--7-7-7-7-7-7-7-7-7-7-7-7-7---|
A:------------------------------|
E:------------------------------|


verse 1

G:--------00--------------|
D:--22------003322    X12-|
A:00--2233----------------|
E:------------------------|


Chorus


G:------------0---------------|
D:0---2-----------0---2-------|    X2
A:--------3---------------3---|
E:----------------------------|


Post Chorus

G:12--10--8-7-0------|
D:--12--10-8-7-------|   X2
A:-------------------|
E:-------------------|


Solo
[ Tab from: https://www.guitartabs.cc/tabs/b/berlin/metro_btab.html ]
G:------------------------------12----------|
D:-12-----10--12-----10--12-------12-----12-|
A:------------------------------------------|
E:------------------------------------------|

G:-12---------10----8---12---------10------8-|
D:--------12-----10---8--------12-----10--8--|
A:-------------------------------------------|
E:-------------------------------------------|


G:-12--------17--15--14--15--12-------|
D:--------12--------------------------|
A:------------------------------------|
E:------------------------------------|


Outro

G:-12--
D:---12     X8
A:-----
E:-----


             you can contact me at hellomusicgames@yahoo.com or
             WWW.Myspace.COM/Iwannabetheminority4ever PEACE