Ben Taylor - You Belong To Me Chords & Tabs

 

You Belong To Me Chords & Tabs

Ben Taylor Chords & Tabs

Version: 1 Type: Tab

You Belong To Me Tab

Standard Tuning, Capo 3rd Fret (Tab relative to capo)

e|---------0-----0-------------------------------------------------|
B|-----1-3---3-1---------0---------------1------------1------------|
G|---------------------0-------------2-4--4-2-2-----0--------------|
D|---2---------------2---------------3-3--3-3-3---2----------------|
A|-3--------------------------------------------3------------------|
E|-----------------0-------------1---------------------------------|
[ Tab from: https://www.guitartabs.cc/tabs/b/ben_taylor/you_belong_to_me_tab.html ]
e|-------1-----------------0--------1------------------------------|
B|-----1-------1-------3--------------1-----1----------------------|
G|---2-------1---1---0---0--------2-------1---1-------0-0h2p0------|
D|-3-------3--------------------3-------3---------0h2---------0-2--|
A|-----------------3---2---0--------------------3------------------|
E|-----------------------------------------------------------------|

First tab, pretty basic. Iíll figure out the rest later.

http://www.bentaylormusic.com/