Beck Mongolian Chop Squad - Follow Me Chords & Tabs

 

Follow Me Chords & Tabs

Beck Mongolian Chop Squad Chords & Tabs

Version: 1 Type: Tab

Follow Me Tab

   
Chorus

Follow me..

  1      1     1/2     1/2      1/2
  G      Em     Hm     Hm(7)     C
e---3-----0------2------2--------0---|
B---0-----0------3------3--------1---|
G---0-----0------4------2h4------0---|
D---0-----2------4------4--------2---|
A---x-----2-----2-------2-------3----|
E--3-----0---------------------------|

  1/4    1/4   1/2     1/2    1/2
  Em      H    Em     Em/D#   Em/D
e----------------0------0------0-----|
B--5------4------0------0------0-----|
G--4(*)---4------0------0------0-----|
D--5------4-----2------1------0------|
A------------------------------------|
E------------------------------------|

 1/2           1/2     1/2
 A7 (sus4)       C      D
e--0-0-0-0-0------0------------------|
B--2-2-3-2-2------1-------3----------|
G--0-0-0-0-0------0-------2(*)-------|
D--2-2-2-2-2------2-----0------------|
A--0-0-0-0-0-----3-------------------|
E------------------------------------|

The second time the chords with (*) were altered a bit

  Em is A    and      D is  D7
e-------5---------------2-2----------|
B-------4---------------1-1----------|
G-------5---------------2-2----------|
D-------4---------------0-0----------|
A------------------------------------|
E------------------------------------|

Verse

I was standing...

   1                          1
   G(sus4)                   G(sus4)
e---3--3-3-3--3--3-3--3-3-3----------|
B---0--0-0-0--1--0-0--0-0-0----------|
G---0--0-0-0--0--0-0--0-0-0----------|
D---0--0-0-0--0--0-0--0-0-0----------|
A------------------------------------|
E--3---3-3-3--3--3-3--3-3-3----------|

You can play the pattern over the following 3 chords
with or without
[ Tab from: https://www.guitartabs.cc/tabs/b/beck_mongolian_chop_squad/follow_me_tab.html ]
sus4
     1       1         1        1
     G      G/F#      G/F       C
e-----3-------3--------3--------0---|
B----0(1)----0(1)-----0(1)-----1---|
G-|:--0-------0--------0--------0---|
D-|:--0-------0--------0--------2---|
A------------------------------3----|
E----3-------2--------1-------------|

  1     1/4    1/4        1/2
  Am     G     G/F#        Em
e---0----------------------0---------|
B---1-----0------0---------0---------|
G---2-----0------0---------0---:|----|
D---2-----0------0---------2---:|----|
A--0-----------------------2---------|
E--------3------2---------0----------|

[1.                     ]
   1        1
   Am      D(sus4)
e---0------3-3-3--2-2----------------|
B---1------3-3-3--3-3----------------|
G---2------2-2-2--2-2----------------|
D---2------0-0-0--0-0----------------|
A--0---------------------------------|
E------------------------------------|

[2.
   1/2  1/2    1/2       1/2
   Am   D7    D7sus4/C   F7/D#
e---0----2------3----------5---------|
B---1----1------1----------4---------|
G---2----2------2----------5---------|
D---2----0------x----------x---------|
A--0------------3----------6---------|
E------------------------------------|
                     ]

    1/2        1/2
  F7sus4/G      D7
e--6------------5-5------------------|
B--4------------7-7------------------|
G--5------------5-5------------------|
D--5------------0-0------------------|
A------------------------------------|
E------------------------------------|

Have fun.

e--2--2-2h3p2---------3-3-------3-3--|
B--3---------3----3---3-3---3--3-3--|
G--2----------2--0-0-------0-0-------|
D--0---------------------------------|
A---------------3---------2----------|
E------------------------------------|

e-------3-0--------------------------|
B-----3-3-0--------------------------|
G----0--------repeat-----------------|
D---0--------------------------------|
A------------------------------------|
E--3---------------------------------|