Beatsteaks - She Was Great Chords & Tabs

 

She Was Great Chords & Tabs

Beatsteaks Chords & Tabs

Version: 2 Type: Bass Tab

She Was Great Bass Tab

Bass: Totze
Tuning: Half Step Down

She was great


Intro

F#------------------------------------------|          
C#------------------------------------------|           
G#--3--------5--7----5--7----3--------5--7--|           
D#-----5------------------------5-----------|  


1st Verse                     

F#----------------------------------------|          
C#----------------------------------------|   3x          
G#-----5-------2-------0----5-------2-----|           
D#--5-------3-------0----------3-------0--|           
         

1st Chorus

F#--------------------------------|          
C#--------------------------------|          
G#-----5-------2-------0----5-----|           
D#--5-------3-------0----------3--| 


2nd Verse

F#------------------------------------------------------------------------|          
C#------------------------------------------------------------------------|             
G#-----5-------2-------0----5-------2----------5-------2-------0----5-----|           
D#--5-------3-------0----------3-------0----5-------3-------0----------3--|           
          

2nd Chorus

F#--------------------------------|          
C#--------------------------------|   2x          
G#-----5-------2-------0----5-----|           
D#--5-------3-------0----------3--| 


1st Break
[ Tab from: https://www.guitartabs.cc/tabs/b/beatsteaks/she_was_great_btab_ver_2.html ]
F#---------------------------------------------------------------|          
C#---------------------------------------------------------------|          
G#--3---5h7---5h7----3---5h7-------5-------2----3---5h7---5h7--|           
D#----5-----------------5--------5-------3---------5-------------| 

F#-----------|          
C#-----------|          
G#--3---5h7--|           
D#----5------| 



3rd Verse

F#----------------------------------------|          
C#----------------------------------------|   2x            
G#-----5-------2-------0----5-------2-----|           
D#--5-------3-------0----------3-------0--|       

F#--------------------------------|          
C#--------------------------------|          
G#-----5-------2-------0----5-----|          
D#--5-------3-------0----------3--|           
    

3rd Chorus

F#--------------------------------|          
C#--------------------------------|   2x          
G#-----5-------2-------0----5-----|           
D#--5-------3-------0----------3--| 


2nd Break

F#-----------------------------|          
C#-----------------------------|          
G#--3---5h7---5h7----3---5h7--|           
D#----5-----------------5------| 


End

F#---------------------------------|          
C#---------------------------------|   2x          
G#-----5-------2-------0----5------|           
D#--5-------3-------0----------3~--| 

Please rate the tab
Zach 182