Beatsteaks - Hail To The Freaks Chords & Tabs

 

Hail To The Freaks Chords & Tabs

Beatsteaks Chords & Tabs

Version: 1 Type: Tab

Hail To The Freaks Tab

|--------------------|
|--------------------|
|--------------------|
|--11-11-11-11-11-11-|
|--11-11-11-11-11-11-|
|--9-9-9-9-9-9-9-9---|
 You play this part after the Intro from Guitar 2
[ Tab from: https://www.guitartabs.cc/tabs/b/beatsteaks/hail_to_the_freaks_tab.html ]
Refrain: I predic the world, keeps you hanging off, and ive been around.....
|----------------------------------------------------|
|----------------------------------------------------|
|--11-11-11-11-11------------------------------------|
|--11-11-11-11-11-11-11-11-11-11-11-11-9-9-9-9-9-9-9-|
|--9-9-9-9-9-9-9--11-11-11-11-11-11-11-9-9-9-9-9-9-9-|
|-----------------9--9--9--9--9--9--9--7-7-7-7-7-7-7-|

Have Fun !!! =)

Rate this tab !!!

Thanks