Beatles - Sgt Pepper's Lonely Hearts Club Band Chords & Tabs

 

Sgt Pepper's Lonely Hearts Club Band Chords & Tabs

Beatles Chords & Tabs

Version: 2 Type: Bass Tab

Sgt Pepper's Lonely Hearts Club Band Bass Tab

Sgt. Pepper's Lonely Hearts Club Band Reprise - Bass Tab

Tabbed By: Supremo Gophero
www.maxpages.com/supremogophero

No bass till guitar starts

G|------------------------|
D|------------------------|
A|------------------------| x4
E|---1--1------1--1-------|

G|------------------------|------------------------|-----------------------|
D|------------------------|------------------------|-----------------------|
A|------------------------|---1--1-----------------|---1--1------1--1------|
E|---1--1----4--4---------|----------1--1--------|-----------------------|

G|------------------------|------------------------|-----------------------|
D|------------------------|------------------------|-----------------------|
A|------------------------|------------------------|---1--1----------------|
E|---1--1------1--1-------|---1--1----4--4---------|-----------1--1--------|

G|------------------------|------------------------|
D|------------------------|------------------------|
A|------------------------|-3-----3-----3-----3----|
E|---3--3------3--3------|----3-----3-----3-----3-|

G|------------------------|------------------------|-----------------------|
D|------------------------|------------------------|-----------------------|
A|---1--1------1--1-------|------------------------|-----------------------|
E|------------------------|---1--1----1--1---------|---3--3----3--3-------|

G|------------------------|
D|------------------------|
A|-5-----5-----5-----5----|
E|----5-----5-----5----5-|
[ Tab from: https://www.guitartabs.cc/tabs/b/beatles/sgt_peppers_lonely_hearts_club_band_btab_ver_2.html ]
G|------------------------|------------------------|-----------------------|
D|------------------------|------------------------|-----------------------|
A|------------------------|---3--3-----------------|---3--3----3--3--------|
E|---3--3------6--6-------|----------3--3---------|---------------------|

G|------------------------|------------------------|-----------------------|
D|------------------------|------------------------|-----------------------|
A|------------------------|------------------------|---3--3----------------|
E|---3--3------3--3-------|---3--3----6--6---------|-----------3-3--------|

G|------------------------|------------------------|
D|------------------------|------------------------|
A|------------------------|-5-----5-----5-----5----|
E|---5--5------5--5-------|----5-----5-----5----5-|

G|------------------------|------------------------|-----------------------|
D|------------------------|------------------------|-----------------------|
A|---3--3------3--3-------|------------------------|-----------------------|
E|------------------------|---3--3----3--3---------|---5--5----5--5-------|

G|------------------------|------------------------|----------------------- 
D|------------------------|------------------------|----------------------- 
A|-3--3--3--3--3--3--3--3-|-3--3--3--3--3--3--3--3-|----------------------
E|---------------------|---------------------|-3--3--3--3--3--3--3--3|

G|------------------------|------------------------|------------------|    
D|------------------------|------------------------|------------------|    
A|------------------------|-3--3--3--3--3--3--3--3-|------------------|    
E|-6-6-6-6--6--6--6--6-|---------------------|-3----------------|