Beatles - Get Back Chords & Tabs

 

Get Back Chords & Tabs

Beatles Chords & Tabs

Version: 2 Type: Bass Tab

Get Back Bass Tab

Another classic by the Fab Four.

Tabbed by: BASSteve

Tuning: EADG

Time signature: 4/4

{}= note inside pointed parenthesis still ringing from previous measure

*My tabs are meant to be read in conjunction with listening to the song.
In other words, there are no specific notations to account for note/rest 
duration. However, you will find that Iíve made an attempt to
strategically space the notes and rests within their respective measures
in order to represent the appropriate durations.



 (moderately soft crescendo to moderately loud)
  mp. <  mf.    [6x]
G|--------------------------------|----7-------7-------7-------7---|
D|----7-------7-------7-------7---|--------------------------------|
A|--------------------------------|5-------5-------5-------5-------|
E|5-------5-------5-------5-------|--------------------------------|

 [..............................4 x..............................]
                [3x]
|--------------------------------|----7-------7-------7-------7---|
|----7-------7-------7-------7---|--------------------------------|
|--------------------------------|5-------5-------5-------5-------|
|5-------5-------5-------5-------|--------------------------------|


                                                [2x]
|--------------------------------|--------------------------------|
|----7-------7-------------------|----7-------7-------7-------7---|
|------------------------5-------|--------------------------------|
|5-------5-------3---------------|5-------5-------5-------5-------|



|----7-------7-------7-------7---|--------------------7-----------|
|--------------------------------|----7-------7---------------7---|
|5-------5-------5-------5-------|----------------5---------------|
|--------------------------------|5-------5-5-------------5-------|


[ Tab from: https://www.guitartabs.cc/tabs/b/beatles/get_back_btab_ver_2.html ]
|--------------------------------|----7-------7-------7-------7---|
|----7-------7-------7-------7---|--------------------------------|
|--------------------------------|5-------5-------5-------5-------|
|5-------5-------5-------5-------|--------------------------------|



|--------------------------------|--------------------------------|
|----7-------7-------7-------7---|----7-------7-------7-----------|
|--------------------------------|------------------------3---5---|
|5-------5-------5-------5-------|5-------5-------5---------------|


               [2x]                             [2x]
|--------------------------------|--------------------------------|
|--------------------------------|----7-------7-------7-------7---|
|{5}-----------------------------|--------------------------------|
|--------------------------------|5-------5-------5-------5-------|

                                  [...............................
                                                [3x]
|----7-------7-------7-------7---|--------------------------------|
|--------------------------------|----7-------7-------7-------7---|
|5-------5-------5-------5-------|--------------------------------|
|--------------------------------|5-------5-------5-------5-------|

 9 x............................]
                                          [3x at 5/4 time]
|----7-------7-------7-------7---|{7}-----------------------------|
|--------------------------------|--------------------------------|
|5-------5-------5-------5-------|--------------------------------|
|--------------------------------|--------------------------------|

 [............................To Fade............................]
               [3x]
|--------------------------------|----7-------7-------7-------7---|
|----7-------7-------7-------7---|--------------------------------|
|--------------------------------|5-------5-------5-------5-------|
|5-------5-------5-------5-------|--------------------------------|

              (PLEASE RATE THIS TAB / LEAVE COMMENT)