Beastie Boys - The Mix-up Chords & Tabs

 

The Mix-up Chords & Tabs

Beastie Boys Chords & Tabs

Version: 1 Type: Bass Tab

The Mix-up Bass Tab

Song: The Mix Up (One of two bonus tracks on the japapnese release of the album The Mix Up)
Artist: Beastie Boys
A really rare song, but defiantly worth a listen, I love it!
G|----------------------------------|
D|--9-7-----------------------------|
A|-------9-7-5-7--2-5-2-------------|   Fill
E|----------------------------------|

G|-------------------------------------------------------|
D|-------------------------------------------------------|
A|---0-2--0-2--0-2--0-2--0-2--0-2--0-2--0-2--------------|    Verse
E|-------------------------------------------------------|
[ Tab from: https://www.guitartabs.cc/tabs/b/beastie_boys/the_mix_up_btab.html ]
G|-------------------------------------------------------|
D|--------0-2--3-2-0-----------0-2--3-2-0----------------|
A|---0-2---------------2---0-2---------------2-----------|     Chorus
E|-------------------------------------------------------|

G|------------------------------------|
D|------------------------------------|
A|-------9-7----------5-7-------------|   Fill 2
E|------------9-7--7-------7----------|

Listen to the song for timing, its this but repeated, with some odd parts where he 
in with the guitar in the middle.

Feel free to edit this, no doubt Im playing it too high or low, it just sounds right to me.

Fishman