Bear Vs Shark - Entrance Of The Elected Chords & Tabs

 

Entrance Of The Elected Chords & Tabs

Bear Vs Shark Chords & Tabs

Version: 1 Type: Bass Tab

Entrance Of The Elected Bass Tab

If you have questions, my AIM name is Cameron5.

ENTRANCE OF THE ELECTED
by
BEAR VS. SHARK

Tabbed by: Cameron L. a.k.a. Ska Bassist


|Intro|

G|-------------------|
D|-------------------|  X8
A|-------------------|
E|--3/8-0~-8\-3/8-0--|

|Verse|

G|-----------------------------------|
D|--2-----------------2-2-2-2-2-2-2--|    X9
A|----3-3-3-3-3-3-3-3----------------|
E|-----------------------------------|

|Chorus|
[ Tab from: https://www.guitartabs.cc/tabs/b/bear_vs_shark/entrance_of_the_elected_btab.html ]
G|-------------------|
D|-------------------|
A|-------------------|
E|--3/8-0~-8\-3/8-0--|

|Verse 2|
(The drums play first)

G|-----------------------------------|
D|--2-----------------2-2-2-2-2-2-2--|    X6
A|----3-3-3-3-3-3-3-3----------------|
E|-----------------------------------|

|Interlude/Breakdown/Bridge/Whatever|

G|----------|
D|--2---2~--|
A|---3~-----|
E|----------|

G|----------------------------|
D|----------------------------| X4
A|---3-3-3-3-3-3-3-----0~-----|
E|------------------1~----3~--|

Just play the chorus/intro the rest of the song.

 Cameron LeViere 2007, all rights reserved