Barlow Girl - Grey Chords & Tabs

 

Grey Chords & Tabs

Barlow Girl Chords & Tabs

Version: 1 Type: Tab

Grey Tab

Grey
Barlowgirl
Tabbed by Jordy!

(Verse1
Grey抯 my favorite color
Black and white has never been my thing
I抣l take my drink lukewarm now
Hot and cold is not the thing for me
E----------------------------------------------------------------------------|
B----------------------------------------------------------------------------|
G----------------------------------------------------------------------------|
D-4-4-7-7-9-9---|-4-4-7-7-2-2---|-4-4-7-7-9-9---|-4-4-7-7-2-2----------------|
A-4-4-7-7-9-9---|-4-4-7-7-2-2---|-4-4-7-7-9-9---|-4-4-7-7-2-2----------------|
E-2-2-5-5-7-7---|-2-2-5-5-0-0---|-2-2-5-5-7-7---|-2-2-5-5-0-0----------------|

(Bridge)
Absolutes are hidden
I抳e buried my convictions
E-------------------------------------------------|
B-------------------------------------------------|
G-------------------------------------------------|
D-12-12-12-12-11-11- |-12-12-12-12-9-9------------|
A-12-12-12-12-11-11- |-12-12-12-12-9-9------------|
E-10-10-10-10𨖹-|-10-10-10-10-7-7---------------|

(Chorus)
I cannot be blind no more
Numb to what I抦 living for
Help me stop this compromise that
E-------------------------------------------------------------------|
B-------------------------------------------------------------------|
G-------------------------------------------------------------------|
D-4-4-7-7-9-9---9-|-4-4-7-7-9-9---2-|-4-4-7-7-9-9---9---------------|
A-4-4-7-7-9-9---9-|-4-4-7-7-9-9---2-|-4-4-7-7-9-9---9---------------|
E-2-2-5-5-7-7---7-|-2-2-5-5-7-7---0-|-2-2-5-5-7-7---7---------------|

Justifies these lies.  I need Your passion in this life.  Ooh! ooh!
E--------------------------------------------------------------------------------|
B--------------------------------------------------------------------------------|
G--------------------------------------------------------------------------------|
D-9-9-12-12-12-12-|-9-9-12-12-2-2-|-4-4-7-7-9-9---|-4-4-7-7-2-2------------------|
A-9-9-12-12-12-12-|-9-9-12-12-2-2-|-4-4-7-7-9-9---|-4-4-7-7-2-2------------------|
E-7-7-10-10-10-10-|-7-7-10-10-0-0-|-2-2-5-5-7-7---|-2-2-5-5-0-0------------------|

(Verse2)
I don抰 want to impose
Who really needs to know what I believe
Cause no one likes rockin boats
And who would care to see the way I see
E----------------------------------------------------------------------------|
B----------------------------------------------------------------------------|
G----------------------------------------------------------------------------|
D-4-4-7-7-9-9---|-4-4-7-7-2-2---|-4-4-7-7-9-9---|-4-4-7-7-2-2----------------|
A-4-4-7-7-9-9---|-4-4-7-7-2-2---|-4-4-7-7-9-9---|-4-4-7-7-2-2----------------|
E-2-2-5-5-7-7---|-2-2-5-5-0-0---|-2-2-5-5-7-7---|-2-2-5-5-0-0----------------|

(Bridge)
Absolutes are hidden
I抳e buried my convictions
E-------------------------------------------------|
B-------------------------------------------------|
G-------------------------------------------------|
D-12-12-12-12-11-11- |-12-12-12-12-9-9------------|
A-12-12-12-12-11-11- |-12-12-12-12-9-9------------|
E-10-10-10-10𨖹-|-10-10-10-10-7-7---------------|
[ Tab from: https://www.guitartabs.cc/tabs/b/barlow_girl/grey_tab.html ]
(Chorus)
I cannot be blind no more
Numb to what I抦 living for
Help me stop this compromise that
E-------------------------------------------------------------------|
B-------------------------------------------------------------------|
G-------------------------------------------------------------------|
D-4-4-7-7-9-9---9-|-4-4-7-7-9-9---2-|-4-4-7-7-9-9---9---------------|
A-4-4-7-7-9-9---9-|-4-4-7-7-9-9---2-|-4-4-7-7-9-9---9---------------|
E-2-2-5-5-7-7---7-|-2-2-5-5-7-7---0-|-2-2-5-5-7-7---7---------------|

Justifies these lies
I need Your passion in this life
E--------------------------------------------------------------------------------|
B--------------------------------------------------------------------------------|
G--------------------------------------------------------------------------------|
D-9-9-12-12-12-12-|-9-9-12-12-2-2-|-4-4-7-7-9-9---|-4-4-7-7-2-2------------------|
A-9-9-12-12-12-12-|-9-9-12-12-2-2-|-4-4-7-7-9-9---|-4-4-7-7-2-2------------------|
E-7-7-10-10-10-10-|-7-7-10-10-0-0-|-2-2-5-5-7-7---|-2-2-5-5-0-0------------------|

This is actually a piano solo but I thought I would put it in the guitar in case you 
have a piano to go along with.

So give me the fire, yeah
God give me Your fire
And raise this life higher
E--------------------------------|----------------------|---------------------|
B--------------------------------|----------------------|---------------------|
G--------------------------------|----------------------|---------------------|
D------------------ 7-6---------|----------------------|---------- 12---11----|
A-12-11-9-9-8---9----9-9-8-|-12-11-9-12-11-9-|12-11-9- 12---11----------------|
E--------------------------------|----------------------|-----------10----9---|

(Chorus)
I cannot be blind no more
Numb to what I抦 living for
Help me stop this compromise that justifies these lies
E--------------------------------------------------------------------------------|
B--------------------------------------------------------------------------------|
G--------------------------------------------------------------------------------|
D-4-4-7-7-9-9---9-|-4-4-7-7-9-9---2-|-4-4-7-7-9-9---9-|-9-9-12-12----------------|
A-4-4-7-7-9-9---9-|-4-4-7-7-9-9---2-|-4-4-7-7-9-9---9-|-9-9-12-12----------------|
E-2-2-5-5-7-7---7-|-2-2-5-5-7-9---0-|-2-2-5-5-7-7---7-|-7-7-10-10----------------|

I cannot be blind no more
Numb to what I抦 living for
Help me stop this compromise that justifies these lies
I need Your passion in this life
E-------------------------------------------------------------------------------------|
B-------------------------------------------------------------------------------------|
G-------------------------------------------------------------------------------------|
D-4-4-7-7-9-9---9-|-4-4-7-7-9-9---2-|-4-4-7-7-9-9---9-|-9-9-12-12-12-|-9-9-12-12-2-2--|
A-4-4-7-7-9-9---9-|-4-4-7-7-9-9---2-|-4-4-7-7-9-9---9-|-9-9-12-12-12-|-9-9-12-12-2-2--|
E-2-2-5-5-7-7---7-|-2-2-5-5-7-7---0-|-2-2-5-5-7-7---7-|-7-7-10-10-10-|-7-7-10-10-0-0--|

In this life, Grey抯 my favorite color yeah
E-----------------------------------------------------|
B-----------------------------------------------------|
G-----------------------------------------------------|
D-4-4-7-7-9-9---|-4-4-7-7-2-2---|-4-4-7-7-9-9---------|
A-4-4-7-7-9-9---|-4-4-7-7-2-2---|-4-4-7-7-9-9---------|
E-2-2-5-5-7-7---|-2-2-5-5-0-0---|-2-2-5-5-7-7---------|

This is my first tab.  Let me know how I did if you like.
I don't know if it's going to fit in this format.  If not you may have to pull it out on MS Word.
Good Luck!
J.