Band Of Skulls - Bomb Chords & Tabs

 

Bomb Chords & Tabs

Band Of Skulls Chords & Tabs

Version: 1 Type: Tab

Bomb Tab

   
-------------------------------------------------------------------------------
                             BOMB - Band of Skulls
-------------------------------------------------------------------------------
Tabbed by: Dylan Sonderman (Human371)
Email:dsonderm@kent.edu

Figured this out by ear, because some friends and I were going to cover it and there was
no tab. Iím pretty sure the band doesnít play it in standard, but this way totally works.
My first tab, by the way. Hope it sounds good. If nothing else, should give you some 
perspective to get the whole thing. Feel free to correct this tab if you notice a mistake
and figure out what works.



Tuning: standard
(listen to song for perfect timing on all of the parts)

Intro/verses
e|----------------------------------------------------------------------------|
B|----------------------------------------------------------------------------|
G|----------------------------------------------------------------------------|
D|-------5-5-5--------5-5-5---------5-5-5----------3-3-3----------------------|
A|-------------------------------------------------3-3-3----------------------|
E|-3-3-3-------3-3-3--------3-3-3----------3-3-3---1-1-1----------------------|
PM..............................................

Chorus (x2)
(this part Im not sure on, but its something around here)

e|----------------------------------------------------------------------------|
B|----------------------------------------------------------------------------|
G|----------------------------------------------------------------------------|
D|-12--10-9--7----109-7---5----9--5--7---12-109-------------------------------|
A|-12--10-9--7----109-7---5----9--5--7---12-109-----------------------------\-|
E|-10--8--7--5----8-7-5---3----7--3--5---10-8-7-------------------------------|

Bridge into Solo

e|----------------------------------------------------------------------------|
B|----------------------------------------------------------------------------|
G|----------------------------------------------------------------------------|
D|-------5-5-5--------5-5-5---------5-5-5----------3-3-3----------------------|
A|-5-5-5-------5-5-5--------5-5-5----------5-5-5---3-3-3----------------------|
E|-3-3-3-------3-3-3--------3-3-3----------3-3-3---1-1-1----------------------|
PM..............................................

Solo (x2, some phaser)
[ Tab from: https://www.guitartabs.cc/tabs/b/band_of_skulls/bomb_tab.html ]
                  (neck slide)
e|----------------------------------------------------------------------------|
B|----------------------------------------------------------------------------|
G|-----3--5ó7b~~---//\\--7-5-3-2~---------------------------------------------|
D|--5--------------//\\-------------------------------------------------------|
A|----------------------------------------------------------------------------|
E|----------------------------------------------------------------------------|

Transition from solo
e|---------------------------|
B|---------------------------|
G|---------------------------|
D|-3-3-3---------------------|
A|-3-3-3---------------------|
E|-1-1-1---------------------|







Groove/ Outro


e|----------------------------------------------------------------------------|
B|----------------------------------------------------------------------------|
G|----------------------------------------------------------------------------|
D|-------5-5-5--------5-5-5---------5-5-5----------3-3-3----------------------|
A|-5-5-5-------5-5-5--------5-5-5----------5-5-5---3-3-3----------------------|
E|-3-3-3-------3-3-3--------3-3-3----------3-3-3---1-1-1----------------------|

e|----------------------------------------------------------------------------|
B|----------------------------------------------------------------------------|
G|-------5p0h3p0h5--------2p0h3p0h2-----5p0h3p0h5-----------------------------|
D|--------------------------------------------------------3-3-3---------------|
A|-5-5-5----------5-5-5------------5-5-5----------5-5-5---3-3-3---------------|
E|-3-3-3----------3-3-3------------3-3-3----------3-3-3---1-1-1---------------|

e|--------------------------------------------------------------------------|
B|--------------------------------7-8-7-------------------------------------|
G|-------7-8-7-------7-8-7--------7-8-7-------------------------------------|
D|-------------------------------------------------3-3-3--------------------|
A|-5-5-5-------5-5-5--------5-5-5----------5-5-5---3-3-3--------------------|
E|-3-3-3-------3-3-3--------3-3-3----------3-3-3---1-1-1--------------------|

e|----------------------------------------------------------------------------|
B|----------------------------------------------------------------------------|
G|----------------------------------------------------------------------------|
D|-------5-5-5--------5-5-5---------5-5-5----------3-3-3----------------------|
A|-5-5-5-------5-5-5--------5-5-5----------5-5-5---3-3-3----------------------|
E|-3-3-3-------3-3-3--------3-3-3----------3-3-3---1-1-1----------------------|


************************************

| /   slide up
| \   slide down
| h   hammer-on
| p   pull-off
| ~   vibrato
| +   harmonic
| x   Mute note
| b   Bend
| pb  Pre-bend
| br  Bend release
| pbr Pre-bend release
| brb Bend release bend

************************************