Bachman Turner Overdrive - You Aint Seen Nothing Yet Chords & Tabs

 

You Aint Seen Nothing Yet Chords & Tabs

Bachman Turner Overdrive Chords & Tabs

Version: 3 Type: Bass Tab

You Aint Seen Nothing Yet Bass Tab

YOU AINíT SEEN NOTHING YET Bass Tab by Bachman-Turner Overdrive

A classic BTO bass line.

Tabbed by: BASSteve

Tuning: EADG

Time signature: 4/4

r = rest (listen for duration)
\ = slide (high to low)
||= measure gets repeated (see number of times above measure, e.g. 4x)

*My tabs are meant to be read in conjunction with listening to the song.
In other words, there are no specific notations to account for note/rest duration. 
However, you will find that I've made an attempt to strategically space the notes 
and rests within their respective measures in order to represent the appropriate 
durations.



 INTRO / VERSE 

   8x
G||--------------------------------|--------------------------------||
D||--------7-------------------0---|5-------r-----------------------||
A||--------------------------------|------------5---5-------r---7---||
E||5-------------------------------|--------------------------------||



PRE-CHORUS 1

|--------------------------------|--------------------------------|
|--------------------------------|----------------5-------r---5---|
|5---------------------------5---|8-------r---8-------------------|
|--------------------------------|--------------------------------|



|--------------------------------|--------------------11-------------|
|7-----------7-------------------|-------------------------11---10---|
|----------------4---------------|9---------------9------------------|
|--------------------------------|------------9----------------------|


                 
|--------------------------------|--------------------------------|
|9-------------------------------|--------------------------------|
|----------------------------9---|7-------------------------------|
|------------7---7-------7-------|------------------------7\------|



CHORUS

 3x
||--------------------------------|--------------------------------||
||--------------------------------|--------------------------------||
||------------------------7---r---|5-------r-----------------------||
||5-------r-----------------------|--------------------------------||


[ Tab from: https://www.guitartabs.cc/tabs/b/bachman_turner_overdrive/you_aint_seen_nothing_yet_btab_ver_3.html ]
|--------------------------------|--------------------------------|
|--------------------------------|--------------------------------|
|------------------------7---r---|5-------4-------2---r-----------|
|5-------r-----------------------|------------------------0---r---|



[INTRO / VERSE]




PRE-CHORUS 2

|--------------------------------|10--------------------------------|
|--------------------------------|-----10---------------------------|
|5---------------------------5---|--------------8---10--------------|
|--------------------------------|----------------------------------|



|--------------------------------|----------------11------------------|
|7-----------7-------------------|--------------------------11---10---|
|----------------4---------------|9-----------------------------------|
|--------------------------------|------------------------------------|



|--------------------------------|--------------------------------|
|9-----------9---9---------------|--------------------------------|
|----------------------------9---|7-------------------------------|
|------------------------7-------|--------------------------------|



[CHORUS]



[INTRO / VERSE]




PRE-CHORUS 3

|--------------------------------|--------------------------------|
|--------------------------------|----------------5-------5-------|
|5-------5-------5-------5-------|8-------8-----------------------|
|--------------------------------|--------------------------------|



|--------------------------------|----------------9---------------|
|--------------------------------|--------------------------------|
|----------------4-------4-------|9-------9---------------9-------|
|5-------5-----------------------|--------------------------------|



|--------------------------------|--------------------------------|
|--------------------------------|--------------------------------|
|--------------------------------|7-------7-------7-------7-------|
|7-------7-------7-------7-------|--------------------------------|



[CHORUS]




OUTRO (to fade)

||--------------------------------|--------------------------------||
||--------------------------------|--------------------------------||
||----------------------------7---|5-------5-------5-------5-------||
||5-------5-------5-------5-------|--------------------------------||


                 (PLEASE RATE THIS TAB / LEAVE COMMENT)