Azra - Cudne Navike Chords & Tabs

 

Cudne Navike Chords & Tabs

Azra Chords & Tabs

Version: 1 Type: Tab

Cudne Navike Tab

   
Transkripcija: Andrejx
azra :: cudne navike



   Bm                          Bm          D  C# B
|-------------------0------||--------------------------------------|
|--------3------------3----||--------3-----------------------------|
|-----4-----4-----4-----4--||-----4-----4--7--6--4-4-4-4-4-4-4-4x--|
|--------------------------||--------------7--6--4-4-4-4-4-4-4-4x--|
|--2-----------2-----------||--2-----------5--4--2-2-2-2-2-2-2-2x--|
|--------------------------||--------------------------------------|
   B                        D  E      B                        D
|---------------------------------||-------------------------------|
|---------------------------------||-------------------------------|
|--4x-4x-4x-4x-4x-4x-4x-4x--7--9--||--4x-4x-4x-4x-4x-4x-4x-4x--7---|
|--4x-4x-4x-4x-4x-4x-4x-4x--7--9--||--4x-4x-4x-4x-4x-4x-4x-4x--7---|
|--2x-2x-2x-2x-2x-2x-2x-2x--5--7--||--2x-2x-2x-2x-2x-2x-2x-2x--5---|
|---------------------------------||-------------------------------|
   Ona ljubi preko volje,              ponekad mi dopusta

 da se igram njenim tijelom           zeli drugog kraj sebe


   F#m                      A  B
|---------------------------------||-------------------------------|
|---------------------------------||-------------------------------|
|---------------------------------||-------------------------------|
|--4x-4x-4x-4x-4x-4x-4x-4x--7--9--||--9-9-9-9-9-9-9-9-12-12-12-12--|
|--4x-4x-4x-4x-4x-4x-4x-4x--7--9--||--9-9-9-9-9-9-9-9-12-12-12-12--|
|--2x-2x-2x-2x-2x-2x-2x-2x--5--7--||--7-7-7-7-7-7-7-7-10-10-10-10--|
   Ona ljubi preko volje                vjerujem da nije zla

[ Tab from: https://www.guitartabs.cc/tabs/a/azra/cudne_navike_tab.html ]
  A      D  C# A                    E  D     C#   B
|-------------------------------||---------------------------------|
|-------------------------------||---------------------------------|
|--------7--6-------------------||--9--7--7--6--6-4-4-4-4-4-4-4-4--|
|--7--7--7--6--7-7-7-7-7-7-7-7--||--9--7--7--6--6-4-4-4-4-4-4-4-4--|
|--7--7--5--4--7-7-7-7-7-7-7-7--||--7--5--5--4--4-2-2-2-2-2-2-2-2--|
|--5--5--------5-5-5-5-5-5-5-5--||---------------------------------|
   ali ipak    ima cudne navike


Solo:
|------------------------------------------------------------------|
|----------------------------------------------------7---9-9-9-----|
|----------------------------------------------------7---9-9-9-----|
|----------------------------------5-4-5-4-5-4-0--0--7---9-9-9-----|
|--2---4---5---4---5---7--5--4--2----------------------------------|
|------------------------------------------------------------------|

|------------------------------------------------------------------|
|----------------------------------9-9-9---7---6---7-7---4-4-4-----|
|----------------------------------9-9-9---7---6---7-7---4-4-4-----|
|----------------------------------9-9-9---7---6---7-7---4-4-4-----|
|--2---4---5---4---5---7--5--4--2----------------------------------|
|------------------------------------------------------------------|

|------------------------------------------------------------------|
|----------------------------------------------------7---9-9-9-----|
|----------------------------------------------------7---9-9-9-----|
|----------------------------------5-4-5-4-5-4-0--0--7---9-9-9-----|
|--2---4---5---4---5---7--5--4--2----------------------------------|
|------------------------------------------------------------------|

|------------------------------------------------------------------|
|----------------------------------4-4-4---6-6-6---7-7-7---9~------|
|----------------------------------4-4-4---6-6-6---7-7-7---9~------|
|----------------------------------4-4-4---6-6-6---7-7-7---9~------|
|--2---4---5---4---5---7--5--4--2----------------------------------|
|------------------------------------------------------------------|