Autolux - Here Comes Everybody Chords & Tabs

 

Here Comes Everybody Chords & Tabs

Autolux Chords & Tabs

Version: 1 Type: Tab

Here Comes Everybody Tab

   
Here Comes Everybody
Artist: Autolux
Album: Future Perfect (2004)
Tuning: standard
email:witmachine@yahoo.com

These are the chords played.  The first row is played during the verse, second during 
chorus.

     C	      Eb
e|---3--------3-------3-------|
B|---5--------4-------6-------|
G|---5--------3-------3-------|
D|---5(x16)--5-(x7)--5-(x9)--|
A|---3--------6-------6-------|
E|---3--------3-------3-------|

     C        Eb      Ab      Eb       Db
e|---3--------3-------4------------------------|
B|---5--------4-------4-------8--------6-------|
G|---5--------3-------5-------8--------6-------|
D|---5(x8)---5-(x8)--6-(x7)--8-(x5)---6-(x4)--|
A|---3--------6-------6-------6--------4-------|
E|---3--------3-------4------------------------|

[ Tab from: https://www.guitartabs.cc/tabs/a/autolux/here_comes_everybody_tab.html ]
The song can also be played with a capo round the third fret:

     A	      C
e|---0--------0-------0-------|
B|---3--------1-------3-------|
G|---3--------0-------0-------|
D|---3(x16)--2-(x7)--2-(x9)--|
A|---0--------3-------3-------|
E|---0--------0-------0-------|

     A        C       F       C        Bb
e|---0--------0-------1------------------------|
B|---3--------1-------1-------5--------3-------|
G|---3--------0-------2-------5--------3-------|
D|---3(x8)---2-(x8)--3-(x7)--5-(x5)---3-(x4)--|
A|---0--------3-------3-------3--------1-------|
E|---0--------0-------1------------------------|


Either way sounds good, they have some songs in Eb tuning so i guess you can figure that 
out.  Also, the beginning note that is played is D (just sliding from one octave to another).