Atreyu - Falling Down Chords & Tabs

 

Falling Down Chords & Tabs

Atreyu Chords & Tabs

Version: 1 Type: Bass Tab

Falling Down Bass Tab

   
TUNING: CGCF
TABBED BY: Sammy Sabby
ALBUM: Lead Sails Paper Anchor

INTRO/VERSE 1:
F|------------------|
C|------------------|
G|------------------|
C|-7-767-767-767-10-| x5

F|-------------------|
C|-------------------|
G|-------------------|
C|-6-666-66-3-333-33-|

F|------------------|
C|------------------|
G|------------------|
C|-7-767-767-767-10-| x3

F|-------------------|
C|-------------------|
G|-------------------|
C|-6-666-66-3-333-33-|

CHORUS:
F|--------------------------------------------------|
C|-3-3333-------------------------------------------|
G|--------3-3333--------8-8888-0-000-3-333-5-5555-5-|
C|---------------7-7777-----------------------------| x2

F|----------------|
C|----------------|
G|----------------|
C|-7h-10\-7h-/\-|

VERSE 2:
F|----------------------------------------------------|-------------------|
C|----------------------------------------------------|-------------------|
G|----------------------------------------------------|-------------------|
C|-7-767-767-767-10-7-767-767-767-107-767-767-767-10-|-6-666-66-3-333-33-|

     [PAUSE]

F|----------------------------------------|
C|----------------------------------------|
G|------------------5---------------------|
C|-7/-7h-7h6h-367-763-7777777733333333-|

CHORUS:
F|--------------------------------------------------|-----------|
C|-3-333--------------------------------------------|--7-5-3-2-|
G|-------3-3333--------8-8888-0-0000-3-333-5-5555-5-|-5---------|
C|--------------7-7777------------------------------|-----------|
[ Tab from: https://www.guitartabs.cc/tabs/a/atreyu/falling_down_btab.html ]
F|--------------------------------------------------|
C|-3-3333-------------------------------------------|
G|--------3-3333--------8-8888-0-000-3-333-5-5555-5-|
C|---------------7-7777-----------------------------| 

F|-----------------|------------------------------||
C|-----------------|------------------------------||
G|-8-8-8-8-8-8-8-8-|--------------5-------------5-||
C|-----------------|-77-10\-77-36777-10\-77-367-||

F|-------|
C|-------|		[PAUSE]
G|-------|
C|-7-7-7-|

F|------------------|    |-------------------|
C|------------------|    |-------------------|
G|------------------|    |-------------------|
C|-7-767-767-767-10-| x3 |-6-666-66-3-333-33-|

F|-----------------|
C|-----------------|
G|-----------------|    
C|-2-212-212-212-5-| x2 

F|------------------|-------------------|
C|------------------|-------------------|
G|------------------|-------------------|
C|-7-767-767-767-10-|-6-666-66-3-333-33-|

F|--------------------------------------------------|-----------|
C|-3-333--------------------------------------------|--7-5-3-2-|
G|-------3-3333--------8-8888-0-0000-3-333-5-5555-5-|-5---------|
C|--------------7-7777------------------------------|-----------|

F|--------------------------------------------------|-------------------|
C|-3-3333-------------------------------------------|-------------------|
G|--------3-3333--------8-8888-0-000-3-333-5-5555-5-|-------------------|
C|---------------7-7777-----------------------------|-6-666-66-3-333-33-|

F|----------------|    |-----|
C|----------------|    |-----|
G|--------------5-|    |-----|
C|-77-10\-77-367-| x3 |-7-7-|

*end*